  0
SECTION
  2
HEADER
  9
$ACADVER
  1
AC1024
  9
$ACADMAINTVER
 70
     6
  9
$DWGCODEPAGE
  3
ANSI_1252
  9
$INSBASE
 10
0.0
 20
0.0
 30
0.0
  9
$EXTMIN
 10
-2.575
 20
-4.1555
 30
0.0
  9
$EXTMAX
 10
14.575
 20
1.1245
 30
0.0
  9
$LIMMIN
 10
-2.575
 20
-4.1555
  9
$LIMMAX
 10
14.575
 20
1.1245
  9
$ORTHOMODE
 70
     0
  9
$REGENMODE
 70
     1
  9
$FILLMODE
 70
     1
  9
$QTEXTMODE
 70
     0
  9
$MIRRTEXT
 70
     1
  9
$LTSCALE
 40
1.0
  9
$ATTMODE
 70
     1
  9
$TEXTSIZE
 40
0.2
  9
$TRACEWID
 40
0.05
  9
$TEXTSTYLE
  7
STANDARD
  9
$CLAYER
  8
pad
  9
$CELTYPE
  6
BYLAYER
  9
$CECOLOR
 62
   256
  9
$CELTSCALE
 40
1.0
  9
$DISPSILH
 70
     0
  9
$DIMSCALE
 40
1.0
  9
$DIMASZ
 40
0.18
  9
$DIMEXO
 40
0.0625
  9
$DIMDLI
 40
0.38
  9
$DIMRND
 40
0.0
  9
$DIMDLE
 40
0.0
  9
$DIMEXE
 40
0.18
  9
$DIMTP
 40
0.0
  9
$DIMTM
 40
0.0
  9
$DIMTXT
 40
0.18
  9
$DIMCEN
 40
0.09
  9
$DIMTSZ
 40
0.0
  9
$DIMTOL
 70
     0
  9
$DIMLIM
 70
     0
  9
$DIMTIH
 70
     1
  9
$DIMTOH
 70
     1
  9
$DIMSE1
 70
     0
  9
$DIMSE2
 70
     0
  9
$DIMTAD
 70
     0
  9
$DIMZIN
 70
     0
  9
$DIMBLK
  1

  9
$DIMASO
 70
     1
  9
$DIMSHO
 70
     1
  9
$DIMPOST
  1

  9
$DIMAPOST
  1

  9
$DIMALT
 70
     0
  9
$DIMALTD
 70
     2
  9
$DIMALTF
 40
25.4
  9
$DIMLFAC
 40
1.0
  9
$DIMTOFL
 70
     0
  9
$DIMTVP
 40
0.0
  9
$DIMTIX
 70
     0
  9
$DIMSOXD
 70
     0
  9
$DIMSAH
 70
     0
  9
$DIMBLK1
  1

  9
$DIMBLK2
  1

  9
$DIMSTYLE
  2
STANDARD
  9
$DIMCLRD
 70
     0
  9
$DIMCLRE
 70
     0
  9
$DIMCLRT
 70
     0
  9
$DIMTFAC
 40
1.0
  9
$DIMGAP
 40
0.09
  9
$DIMJUST
 70
     0
  9
$DIMSD1
 70
     0
  9
$DIMSD2
 70
     0
  9
$DIMTOLJ
 70
     1
  9
$DIMTZIN
 70
     0
  9
$DIMALTZ
 70
     0
  9
$DIMALTTZ
 70
     0
  9
$DIMUPT
 70
     0
  9
$DIMDEC
 70
     4
  9
$DIMTDEC
 70
     4
  9
$DIMALTU
 70
     2
  9
$DIMALTTD
 70
     2
  9
$DIMTXSTY
  7
STANDARD
  9
$DIMAUNIT
 70
     0
  9
$DIMADEC
 70
     0
  9
$DIMALTRND
 40
0.0
  9
$DIMAZIN
 70
     0
  9
$DIMDSEP
 70
    46
  9
$DIMATFIT
 70
     3
  9
$DIMFRAC
 70
     0
  9
$DIMLDRBLK
  1

  9
$DIMLUNIT
 70
     2
  9
$DIMLWD
 70
    -2
  9
$DIMLWE
 70
    -2
  9
$DIMTMOVE
 70
     2
  9
$DIMFXL
 40
1.0
  9
$DIMFXLON
 70
     0
  9
$DIMJOGANG
 40
0.7853981633974483
  9
$DIMTFILL
 70
     0
  9
$DIMTFILLCLR
 70
     0
  9
$DIMARCSYM
 70
     0
  9
$DIMLTYPE
  6

  9
$DIMLTEX1
  6

  9
$DIMLTEX2
  6

  9
$DIMTXTDIRECTION
 70
     0
  9
$LUNITS
 70
     2
  9
$LUPREC
 70
     6
  9
$SKETCHINC
 40
0.1
  9
$FILLETRAD
 40
0.5
  9
$AUNITS
 70
     0
  9
$AUPREC
 70
     0
  9
$MENU
  1
.
  9
$ELEVATION
 40
0.0
  9
$PELEVATION
 40
0.0
  9
$THICKNESS
 40
0.0
  9
$LIMCHECK
 70
     0
  9
$CHAMFERA
 40
0.5
  9
$CHAMFERB
 40
0.5
  9
$CHAMFERC
 40
1.0
  9
$CHAMFERD
 40
0.0
  9
$SKPOLY
 70
     0
  9
$TDCREATE
 40
2459078.892384248
  9
$TDUCREATE
 40
2459079.059050914
  9
$TDUPDATE
 40
2459078.892388981
  9
$TDUUPDATE
 40
2459079.059055648
  9
$TDINDWG
 40
0.0
  9
$TDUSRTIMER
 40
0.0
  9
$USRTIMER
 70
     1
  9
$ANGBASE
 50
0.0
  9
$ANGDIR
 70
     0
  9
$PDMODE
 70
     0
  9
$PDSIZE
 40
0.0
  9
$PLINEWID
 40
0.0
  9
$SPLFRAME
 70
     0
  9
$SPLINETYPE
 70
     6
  9
$SPLINESEGS
 70
     8
  9
$HANDSEED
  5
24A
  9
$SURFTAB1
 70
     6
  9
$SURFTAB2
 70
     6
  9
$SURFTYPE
 70
     6
  9
$SURFU
 70
     6
  9
$SURFV
 70
     6
  9
$UCSBASE
  2

  9
$UCSNAME
  2

  9
$UCSORG
 10
0.0
 20
0.0
 30
0.0
  9
$UCSXDIR
 10
1.0
 20
0.0
 30
0.0
  9
$UCSYDIR
 10
0.0
 20
1.0
 30
0.0
  9
$UCSORTHOREF
  2

  9
$UCSORTHOVIEW
 70
     0
  9
$UCSORGTOP
 10
0.0
 20
0.0
 30
0.0
  9
$UCSORGBOTTOM
 10
0.0
 20
0.0
 30
0.0
  9
$UCSORGLEFT
 10
0.0
 20
0.0
 30
0.0
  9
$UCSORGRIGHT
 10
0.0
 20
0.0
 30
0.0
  9
$UCSORGFRONT
 10
0.0
 20
0.0
 30
0.0
  9
$UCSORGBACK
 10
0.0
 20
0.0
 30
0.0
  9
$PUCSBASE
  2

  9
$PUCSNAME
  2

  9
$PUCSORG
 10
0.0
 20
0.0
 30
0.0
  9
$PUCSXDIR
 10
1.0
 20
0.0
 30
0.0
  9
$PUCSYDIR
 10
0.0
 20
1.0
 30
0.0
  9
$PUCSORTHOREF
  2

  9
$PUCSORTHOVIEW
 70
     0
  9
$PUCSORGTOP
 10
0.0
 20
0.0
 30
0.0
  9
$PUCSORGBOTTOM
 10
0.0
 20
0.0
 30
0.0
  9
$PUCSORGLEFT
 10
0.0
 20
0.0
 30
0.0
  9
$PUCSORGRIGHT
 10
0.0
 20
0.0
 30
0.0
  9
$PUCSORGFRONT
 10
0.0
 20
0.0
 30
0.0
  9
$PUCSORGBACK
 10
0.0
 20
0.0
 30
0.0
  9
$USERI1
 70
     0
  9
$USERI2
 70
     0
  9
$USERI3
 70
     0
  9
$USERI4
 70
     0
  9
$USERI5
 70
     0
  9
$USERR1
 40
0.0
  9
$USERR2
 40
0.0
  9
$USERR3
 40
0.0
  9
$USERR4
 40
0.0
  9
$USERR5
 40
0.0
  9
$WORLDVIEW
 70
     1
  9
$SHADEDGE
 70
     3
  9
$SHADEDIF
 70
    70
  9
$TILEMODE
 70
     1
  9
$MAXACTVP
 70
    48
  9
$PINSBASE
 10
0.0
 20
0.0
 30
0.0
  9
$PLIMCHECK
 70
     0
  9
$PEXTMIN
 10
1.000000000000000E+20
 20
1.000000000000000E+20
 30
1.000000000000000E+20
  9
$PEXTMAX
 10
-1.000000000000000E+20
 20
-1.000000000000000E+20
 30
-1.000000000000000E+20
  9
$PLIMMIN
 10
0.0
 20
0.0
  9
$PLIMMAX
 10
12.0
 20
9.0
  9
$UNITMODE
 70
     0
  9
$VISRETAIN
 70
     1
  9
$PLINEGEN
 70
     0
  9
$PSLTSCALE
 70
     1
  9
$TREEDEPTH
 70
  3020
  9
$CMLSTYLE
  2
STANDARD
  9
$CMLJUST
 70
     0
  9
$CMLSCALE
 40
1.0
  9
$PROXYGRAPHICS
 70
     1
  9
$MEASUREMENT
 70
     0
  9
$CELWEIGHT
370
    -1
  9
$ENDCAPS
280
     0
  9
$JOINSTYLE
280
     0
  9
$LWDISPLAY
290
     0
  9
$INSUNITS
 70
     0
  9
$HYPERLINKBASE
  1

  9
$STYLESHEET
  1

  9
$XEDIT
290
     1
  9
$CEPSNTYPE
380
     0
  9
$PSTYLEMODE
290
     1
  9
$FINGERPRINTGUID
  2
{67e42d07-be3c-418e-9ecf-cb13a545ed94}
  9
$VERSIONGUID
  2
{FAEB1C32-E019-11D5-929B-00C0DF256EC4}
  9
$EXTNAMES
290
     1
  9
$PSVPSCALE
 40
0.0
  9
$OLESTARTUP
290
     0
  9
$SORTENTS
280
   127
  9
$INDEXCTL
280
     0
  9
$HIDETEXT
280
     1
  9
$XCLIPFRAME
280
     2
  9
$HALOGAP
280
     0
  9
$OBSCOLOR
 70
   257
  9
$OBSLTYPE
280
     0
  9
$INTERSECTIONDISPLAY
280
     0
  9
$INTERSECTIONCOLOR
 70
   257
  9
$DIMASSOC
280
     2
  9
$PROJECTNAME
  1

  9
$CAMERADISPLAY
290
     0
  9
$LENSLENGTH
 40
50.0
  9
$CAMERAHEIGHT
 40
0.0
  9
$STEPSPERSEC
 40
2.0
  9
$STEPSIZE
 40
6.0
  9
$3DDWFPREC
 40
2.0
  9
$PSOLWIDTH
 40
0.25
  9
$PSOLHEIGHT
 40
4.0
  9
$LOFTANG1
 40
1.570796326794897
  9
$LOFTANG2
 40
1.570796326794897
  9
$LOFTMAG1
 40
0.0
  9
$LOFTMAG2
 40
0.0
  9
$LOFTPARAM
 70
     7
  9
$LOFTNORMALS
280
     1
  9
$LATITUDE
 40
37.795
  9
$LONGITUDE
 40
-122.394
  9
$NORTHDIRECTION
 40
0.0
  9
$TIMEZONE
 70
 -8000
  9
$LIGHTGLYPHDISPLAY
280
     1
  9
$TILEMODELIGHTSYNCH
280
     1
  9
$SOLIDHIST
280
     0
  9
$SHOWHIST
280
     1
  9
$DWFFRAME
280
     2
  9
$DGNFRAME
280
     2
  9
$REALWORLDSCALE
290
     1
  9
$INTERFERECOLOR
 62
   256
  9
$CSHADOW
280
     0
  9
$SHADOWPLANELOCATION
 40
0.0
  0
ENDSEC
  0
SECTION
  2
CLASSES
  0
CLASS
  1
ACDBDICTIONARYWDFLT
  2
AcDbDictionaryWithDefault
  3
ObjectDBX Classes
 90
        0
 91
        3
280
     0
281
     0
  0
CLASS
  1
SCALE
  2
AcDbScale
  3
ObjectDBX Classes
 90
     1153
 91
        3
280
     0
281
     0
  0
CLASS
  1
VISUALSTYLE
  2
AcDbVisualStyle
  3
ObjectDBX Classes
 90
     4095
 91
        3
280
     0
281
     0
  0
CLASS
  1
MATERIAL
  2
AcDbMaterial
  3
ObjectDBX Classes
 90
     1153
 91
        3
280
     0
281
     0
  0
CLASS
  1
TABLESTYLE
  2
AcDbTableStyle
  3
ObjectDBX Classes
 90
     4095
 91
        3
280
     0
281
     0
  0
CLASS
  1
MLEADERSTYLE
  2
AcDbMLeaderStyle
  3
ACDB_MLEADERSTYLE_CLASS
 90
     4095
 91
        3
280
     0
281
     0
  0
CLASS
  1
DICTIONARYVAR
  2
AcDbDictionaryVar
  3
ObjectDBX Classes
 90
        0
 91
        3
280
     0
281
     0
  0
CLASS
  1
CELLSTYLEMAP
  2
AcDbCellStyleMap
  3
ObjectDBX Classes
 90
     1152
 91
        3
280
     0
281
     0
  0
ENDSEC
  0
SECTION
  2
TABLES
  0
TABLE
  2
VPORT
  5
8
330
0
100
AcDbSymbolTable
 70
     1
  0
VPORT
  5
1E
330
8
100
AcDbSymbolTableRecord
100
AcDbViewportTableRecord
  2
*ACTIVE
 70
     0
 10
0.0
 20
0.0
 11
1.0
 21
1.0
 12
6.0
 22
-1.5155
 13
0.0
 23
0.0
 14
0.25
 24
0.25
 15
0.25
 25
0.25
 16
0.0
 26
0.0
 36
1.0
 17
0.0
 27
0.0
 37
0.0
 40
11.658772
 41
1.501301
 42
50.0
 43
0.0
 44
0.0
 50
0.0
 51
0.0
 71
     0
 72
   100
 73
     1
 74
     1
 75
     0
 76
     0
 77
     0
 78
     0
281
     0
 65
     1
110
0.0
120
0.0
130
0.0
111
1.0
121
0.0
131
0.0
112
0.0
122
1.0
132
0.0
 79
     0
146
0.0
348
1F4
 60
     3
 61
     5
292
     1
282
     1
141
0.0
142
0.0
 63
   256
  0
ENDTAB
  0
TABLE
  2
LTYPE
  5
5
330
0
100
AcDbSymbolTable
 70
     1
  0
LTYPE
  5
12
330
5
100
AcDbSymbolTableRecord
100
AcDbLinetypeTableRecord
  2
BYBLOCK
 70
     0
  3

 72
    65
 73
     0
 40
0.0
  0
LTYPE
  5
13
330
5
100
AcDbSymbolTableRecord
100
AcDbLinetypeTableRecord
  2
BYLAYER
 70
     0
  3

 72
    65
 73
     0
 40
0.0
  0
LTYPE
  5
14
330
5
100
AcDbSymbolTableRecord
100
AcDbLinetypeTableRecord
  2
CONTINUOUS
 70
     0
  3
Solid line
 72
    65
 73
     0
 40
0.0
  0
ENDTAB
  0
TABLE
  2
LAYER
  5
2
330
0
100
AcDbSymbolTable
 70
     2
  0
LAYER
  5
E
330
2
100
AcDbSymbolTableRecord
100
AcDbLayerTableRecord
  2
0
 70
     0
 62
     7
  6
CONTINUOUS
370
    -3
390
1C9
347
20B
  0
LAYER
  5
20
330
2
100
AcDbSymbolTableRecord
100
AcDbLayerTableRecord
  2
pad
 70
     0
 62
     7
  6
CONTINUOUS
370
    -3
390
1C9
347
20B
  0
ENDTAB
  0
TABLE
  2
STYLE
  5
3
330
0
100
AcDbSymbolTable
 70
     1
  0
STYLE
  5
F
330
3
100
AcDbSymbolTableRecord
100
AcDbTextStyleTableRecord
  2
STANDARD
 70
     0
 40
0.0
 41
1.0
 50
0.0
 71
     0
 42
0.2
  3
txt
  4

  0
ENDTAB
  0
TABLE
  2
VIEW
  5
6
330
0
100
AcDbSymbolTable
 70
     0
  0
ENDTAB
  0
TABLE
  2
UCS
  5
7
330
0
100
AcDbSymbolTable
 70
     0
  0
ENDTAB
  0
TABLE
  2
APPID
  5
9
330
0
100
AcDbSymbolTable
 70
     1
  0
APPID
  5
10
330
9
100
AcDbSymbolTableRecord
100
AcDbRegAppTableRecord
  2
ACAD
 70
     0
  0
ENDTAB
  0
TABLE
  2
DIMSTYLE
  5
A
330
0
100
AcDbSymbolTable
 70
     1
100
AcDbDimStyleTable
  0
DIMSTYLE
105
1D
330
A
100
AcDbSymbolTableRecord
100
AcDbDimStyleTableRecord
  2
STANDARD
 70
     0
178
     0
340
F
  0
ENDTAB
  0
TABLE
  2
BLOCK_RECORD
  5
1
330
0
100
AcDbSymbolTable
 70
     0
  0
BLOCK_RECORD
  5
18
330
1
100
AcDbSymbolTableRecord
100
AcDbBlockTableRecord
  2
*MODEL_SPACE
340
1ED
 70
     0
280
     1
281
     0
  0
BLOCK_RECORD
  5
15
330
1
100
AcDbSymbolTableRecord
100
AcDbBlockTableRecord
  2
*PAPER_SPACE
340
1EE
 70
     0
280
     1
281
     0
  0
ENDTAB
  0
ENDSEC
  0
SECTION
  2
BLOCKS
  0
BLOCK
  5
19
330
18
100
AcDbEntity
  8
0
100
AcDbBlockBegin
  2
*MODEL_SPACE
 70
     0
 10
0.0
 20
0.0
 30
0.0
  3
*MODEL_SPACE
  1
     0
  0
ENDBLK
  5
1A
330
18
100
AcDbEntity
  8
0
100
AcDbBlockEnd
  0
BLOCK
  5
16
330
15
100
AcDbEntity
 67
     1
  8
0
100
AcDbBlockBegin
  2
*PAPER_SPACE
 70
     0
 10
0.0
 20
0.0
 30
0.0
  3
*PAPER_SPACE
  1
     0
  0
ENDBLK
  5
17
330
15
100
AcDbEntity
 67
     1
  8
0
100
AcDbBlockEnd
  0
ENDSEC
  0
SECTION
  2
ENTITIES
  0
ARC
  5
21
330
18
100
AcDbEntity
  8
pad
100
AcDbCircle
 10
0.9912
 20
-0.1393
 30
0.0
 40
0.0375
100
AcDbArc
 50
240.217162
 51
60.08453999999999
  0
LINE
  5
22
330
18
100
AcDbEntity
  8
pad
100
AcDbLine
 10
0.9286
 20
-0.1464
 30
0.0
 11
0.9726
 21
-0.1718
 31
0.0
  0
LINE
  5
23
330
18
100
AcDbEntity
  8
pad
100
AcDbLine
 10
0.9661
 20
-0.0814
 30
0.0
 11
1.0099
 21
-0.1068
 31
0.0
  0
ARC
  5
24
330
18
100
AcDbEntity
  8
pad
100
AcDbCircle
 10
0.2412
 20
-0.1393
 30
0.0
 40
0.0375
100
AcDbArc
 50
240.217162
 51
60.08453999999999
  0
LINE
  5
25
330
18
100
AcDbEntity
  8
pad
100
AcDbLine
 10
0.1786
 20
-0.1464
 30
0.0
 11
0.2226
 21
-0.1718
 31
0.0
  0
LINE
  5
26
330
18
100
AcDbEntity
  8
pad
100
AcDbLine
 10
0.2161
 20
-0.0814
 30
0.0
 11
0.2599
 21
-0.1068
 31
0.0
  0
ARC
  5
27
330
18
100
AcDbEntity
  8
pad
100
AcDbCircle
 10
1.7412
 20
-0.1393
 30
0.0
 40
0.0375
100
AcDbArc
 50
240.217162
 51
60.08453999999999
  0
LINE
  5
28
330
18
100
AcDbEntity
  8
pad
100
AcDbLine
 10
1.6786
 20
-0.1464
 30
0.0
 11
1.7226
 21
-0.1718
 31
0.0
  0
LINE
  5
29
330
18
100
AcDbEntity
  8
pad
100
AcDbLine
 10
1.7161
 20
-0.0814
 30
0.0
 11
1.7599
 21
-0.1068
 31
0.0
  0
ARC
  5
2A
330
18
100
AcDbEntity
  8
pad
100
AcDbCircle
 10
2.4912
 20
-0.1393
 30
0.0
 40
0.0375
100
AcDbArc
 50
240.217162
 51
60.08453999999999
  0
LINE
  5
2B
330
18
100
AcDbEntity
  8
pad
100
AcDbLine
 10
2.4286
 20
-0.1464
 30
0.0
 11
2.4726
 21
-0.1718
 31
0.0
  0
LINE
  5
2C
330
18
100
AcDbEntity
  8
pad
100
AcDbLine
 10
2.4661
 20
-0.0814
 30
0.0
 11
2.5099
 21
-0.1068
 31
0.0
  0
ARC
  5
2D
330
18
100
AcDbEntity
  8
pad
100
AcDbCircle
 10
3.2412
 20
-0.1393
 30
0.0
 40
0.0375
100
AcDbArc
 50
240.217162
 51
60.08453999999999
  0
LINE
  5
2E
330
18
100
AcDbEntity
  8
pad
100
AcDbLine
 10
3.1786
 20
-0.1464
 30
0.0
 11
3.2226
 21
-0.1718
 31
0.0
  0
LINE
  5
2F
330
18
100
AcDbEntity
  8
pad
100
AcDbLine
 10
3.2161
 20
-0.0814
 30
0.0
 11
3.2599
 21
-0.1068
 31
0.0
  0
ARC
  5
30
330
18
100
AcDbEntity
  8
pad
100
AcDbCircle
 10
3.9912
 20
-0.1393
 30
0.0
 40
0.0375
100
AcDbArc
 50
240.217162
 51
60.08453999999999
  0
LINE
  5
31
330
18
100
AcDbEntity
  8
pad
100
AcDbLine
 10
3.9286
 20
-0.1464
 30
0.0
 11
3.9726
 21
-0.1718
 31
0.0
  0
LINE
  5
32
330
18
100
AcDbEntity
  8
pad
100
AcDbLine
 10
3.9661
 20
-0.0814
 30
0.0
 11
4.0099
 21
-0.1068
 31
0.0
  0
ARC
  5
33
330
18
100
AcDbEntity
  8
pad
100
AcDbCircle
 10
4.7412
 20
-0.1393
 30
0.0
 40
0.0375
100
AcDbArc
 50
240.217162
 51
60.08453999999999
  0
LINE
  5
34
330
18
100
AcDbEntity
  8
pad
100
AcDbLine
 10
4.6786
 20
-0.1464
 30
0.0
 11
4.7226
 21
-0.1718
 31
0.0
  0
LINE
  5
35
330
18
100
AcDbEntity
  8
pad
100
AcDbLine
 10
4.7161
 20
-0.0814
 30
0.0
 11
4.7599
 21
-0.1068
 31
0.0
  0
ARC
  5
36
330
18
100
AcDbEntity
  8
pad
100
AcDbCircle
 10
5.4912
 20
-0.1393
 30
0.0
 40
0.0375
100
AcDbArc
 50
240.217162
 51
60.08453999999999
  0
LINE
  5
37
330
18
100
AcDbEntity
  8
pad
100
AcDbLine
 10
5.4286
 20
-0.1464
 30
0.0
 11
5.4726
 21
-0.1718
 31
0.0
  0
LINE
  5
38
330
18
100
AcDbEntity
  8
pad
100
AcDbLine
 10
5.4661
 20
-0.0814
 30
0.0
 11
5.5099
 21
-0.1068
 31
0.0
  0
ARC
  5
39
330
18
100
AcDbEntity
  8
pad
100
AcDbCircle
 10
5.1162
 20
-0.9493
 30
0.0
 40
0.0375
100
AcDbArc
 50
240.217162
 51
60.08453999999999
  0
LINE
  5
3A
330
18
100
AcDbEntity
  8
pad
100
AcDbLine
 10
5.0536
 20
-0.9564
 30
0.0
 11
5.0976
 21
-0.9818
 31
0.0
  0
LINE
  5
3B
330
18
100
AcDbEntity
  8
pad
100
AcDbLine
 10
5.0911
 20
-0.8914
 30
0.0
 11
5.1349
 21
-0.9168
 31
0.0
  0
ARC
  5
3C
330
18
100
AcDbEntity
  8
pad
100
AcDbCircle
 10
4.3662
 20
-0.9493
 30
0.0
 40
0.0375
100
AcDbArc
 50
240.217162
 51
60.08453999999999
  0
LINE
  5
3D
330
18
100
AcDbEntity
  8
pad
100
AcDbLine
 10
4.3036
 20
-0.9564
 30
0.0
 11
4.3476
 21
-0.9818
 31
0.0
  0
LINE
  5
3E
330
18
100
AcDbEntity
  8
pad
100
AcDbLine
 10
4.3411
 20
-0.8914
 30
0.0
 11
4.3849
 21
-0.9168
 31
0.0
  0
ARC
  5
3F
330
18
100
AcDbEntity
  8
pad
100
AcDbCircle
 10
3.6162
 20
-0.9493
 30
0.0
 40
0.0375
100
AcDbArc
 50
240.217162
 51
60.08453999999999
  0
LINE
  5
40
330
18
100
AcDbEntity
  8
pad
100
AcDbLine
 10
3.5536
 20
-0.9564
 30
0.0
 11
3.5976
 21
-0.9818
 31
0.0
  0
LINE
  5
41
330
18
100
AcDbEntity
  8
pad
100
AcDbLine
 10
3.5911
 20
-0.8914
 30
0.0
 11
3.6349
 21
-0.9168
 31
0.0
  0
ARC
  5
42
330
18
100
AcDbEntity
  8
pad
100
AcDbCircle
 10
2.8662
 20
-0.9493
 30
0.0
 40
0.0375
100
AcDbArc
 50
240.217162
 51
60.08453999999999
  0
LINE
  5
43
330
18
100
AcDbEntity
  8
pad
100
AcDbLine
 10
2.8036
 20
-0.9564
 30
0.0
 11
2.8476
 21
-0.9818
 31
0.0
  0
LINE
  5
44
330
18
100
AcDbEntity
  8
pad
100
AcDbLine
 10
2.8411
 20
-0.8914
 30
0.0
 11
2.8849
 21
-0.9168
 31
0.0
  0
ARC
  5
45
330
18
100
AcDbEntity
  8
pad
100
AcDbCircle
 10
2.1162
 20
-0.9493
 30
0.0
 40
0.0375
100
AcDbArc
 50
240.217162
 51
60.08453999999999
  0
LINE
  5
46
330
18
100
AcDbEntity
  8
pad
100
AcDbLine
 10
2.0536
 20
-0.9564
 30
0.0
 11
2.0976
 21
-0.9818
 31
0.0
  0
LINE
  5
47
330
18
100
AcDbEntity
  8
pad
100
AcDbLine
 10
2.0911
 20
-0.8914
 30
0.0
 11
2.1349
 21
-0.9168
 31
0.0
  0
ARC
  5
48
330
18
100
AcDbEntity
  8
pad
100
AcDbCircle
 10
1.3662
 20
-0.9493
 30
0.0
 40
0.0375
100
AcDbArc
 50
240.217162
 51
60.08453999999999
  0
LINE
  5
49
330
18
100
AcDbEntity
  8
pad
100
AcDbLine
 10
1.3036
 20
-0.9564
 30
0.0
 11
1.3476
 21
-0.9818
 31
0.0
  0
LINE
  5
4A
330
18
100
AcDbEntity
  8
pad
100
AcDbLine
 10
1.3411
 20
-0.8914
 30
0.0
 11
1.3849
 21
-0.9168
 31
0.0
  0
ARC
  5
4B
330
18
100
AcDbEntity
  8
pad
100
AcDbCircle
 10
0.4412
 20
-0.9493
 30
0.0
 40
0.0375
100
AcDbArc
 50
240.217162
 51
60.08453999999999
  0
LINE
  5
4C
330
18
100
AcDbEntity
  8
pad
100
AcDbLine
 10
0.3786
 20
-0.9564
 30
0.0
 11
0.4226
 21
-0.9818
 31
0.0
  0
LINE
  5
4D
330
18
100
AcDbEntity
  8
pad
100
AcDbLine
 10
0.4161
 20
-0.8914
 30
0.0
 11
0.4599
 21
-0.9168
 31
0.0
  0
ARC
  5
4E
330
18
100
AcDbEntity
  8
pad
100
AcDbCircle
 10
0.4412
 20
-1.7593
 30
0.0
 40
0.0375
100
AcDbArc
 50
240.217162
 51
60.08453999999999
  0
LINE
  5
4F
330
18
100
AcDbEntity
  8
pad
100
AcDbLine
 10
0.3786
 20
-1.7664
 30
0.0
 11
0.4226
 21
-1.7918
 31
0.0
  0
LINE
  5
50
330
18
100
AcDbEntity
  8
pad
100
AcDbLine
 10
0.4161
 20
-1.7014
 30
0.0
 11
0.4599
 21
-1.7268
 31
0.0
  0
ARC
  5
51
330
18
100
AcDbEntity
  8
pad
100
AcDbCircle
 10
1.5662
 20
-1.7593
 30
0.0
 40
0.0375
100
AcDbArc
 50
240.217162
 51
60.08453999999999
  0
LINE
  5
52
330
18
100
AcDbEntity
  8
pad
100
AcDbLine
 10
1.5036
 20
-1.7664
 30
0.0
 11
1.5476
 21
-1.7918
 31
0.0
  0
LINE
  5
53
330
18
100
AcDbEntity
  8
pad
100
AcDbLine
 10
1.5411
 20
-1.7014
 30
0.0
 11
1.5849
 21
-1.7268
 31
0.0
  0
ARC
  5
54
330
18
100
AcDbEntity
  8
pad
100
AcDbCircle
 10
2.3162
 20
-1.7593
 30
0.0
 40
0.0375
100
AcDbArc
 50
240.217162
 51
60.08453999999999
  0
LINE
  5
55
330
18
100
AcDbEntity
  8
pad
100
AcDbLine
 10
2.2536
 20
-1.7664
 30
0.0
 11
2.2976
 21
-1.7918
 31
0.0
  0
LINE
  5
56
330
18
100
AcDbEntity
  8
pad
100
AcDbLine
 10
2.2911
 20
-1.7014
 30
0.0
 11
2.3349
 21
-1.7268
 31
0.0
  0
ARC
  5
57
330
18
100
AcDbEntity
  8
pad
100
AcDbCircle
 10
3.0662
 20
-1.7593
 30
0.0
 40
0.0375
100
AcDbArc
 50
240.217162
 51
60.08453999999999
  0
LINE
  5
58
330
18
100
AcDbEntity
  8
pad
100
AcDbLine
 10
3.0036
 20
-1.7664
 30
0.0
 11
3.0476
 21
-1.7918
 31
0.0
  0
LINE
  5
59
330
18
100
AcDbEntity
  8
pad
100
AcDbLine
 10
3.0411
 20
-1.7014
 30
0.0
 11
3.0849
 21
-1.7268
 31
0.0
  0
ARC
  5
5A
330
18
100
AcDbEntity
  8
pad
100
AcDbCircle
 10
3.8162
 20
-1.7593
 30
0.0
 40
0.0375
100
AcDbArc
 50
240.217162
 51
60.08453999999999
  0
LINE
  5
5B
330
18
100
AcDbEntity
  8
pad
100
AcDbLine
 10
3.7536
 20
-1.7664
 30
0.0
 11
3.7976
 21
-1.7918
 31
0.0
  0
LINE
  5
5C
330
18
100
AcDbEntity
  8
pad
100
AcDbLine
 10
3.7911
 20
-1.7014
 30
0.0
 11
3.8349
 21
-1.7268
 31
0.0
  0
ARC
  5
5D
330
18
100
AcDbEntity
  8
pad
100
AcDbCircle
 10
4.5662
 20
-1.7593
 30
0.0
 40
0.0375
100
AcDbArc
 50
240.217162
 51
60.08453999999999
  0
LINE
  5
5E
330
18
100
AcDbEntity
  8
pad
100
AcDbLine
 10
4.5036
 20
-1.7664
 30
0.0
 11
4.5476
 21
-1.7918
 31
0.0
  0
LINE
  5
5F
330
18
100
AcDbEntity
  8
pad
100
AcDbLine
 10
4.5411
 20
-1.7014
 30
0.0
 11
4.5849
 21
-1.7268
 31
0.0
  0
ARC
  5
60
330
18
100
AcDbEntity
  8
pad
100
AcDbCircle
 10
5.3162
 20
-1.7593
 30
0.0
 40
0.0375
100
AcDbArc
 50
240.217162
 51
60.08453999999999
  0
LINE
  5
61
330
18
100
AcDbEntity
  8
pad
100
AcDbLine
 10
5.2536
 20
-1.7664
 30
0.0
 11
5.2976
 21
-1.7918
 31
0.0
  0
LINE
  5
62
330
18
100
AcDbEntity
  8
pad
100
AcDbLine
 10
5.2911
 20
-1.7014
 30
0.0
 11
5.3349
 21
-1.7268
 31
0.0
  0
ARC
  5
63
330
18
100
AcDbEntity
  8
pad
100
AcDbCircle
 10
0.3412
 20
-2.5693
 30
0.0
 40
0.0375
100
AcDbArc
 50
240.217162
 51
60.08453999999999
  0
LINE
  5
64
330
18
100
AcDbEntity
  8
pad
100
AcDbLine
 10
0.2786
 20
-2.5764
 30
0.0
 11
0.3226
 21
-2.6018
 31
0.0
  0
LINE
  5
65
330
18
100
AcDbEntity
  8
pad
100
AcDbLine
 10
0.3161
 20
-2.5114
 30
0.0
 11
0.3599
 21
-2.5368
 31
0.0
  0
ARC
  5
66
330
18
100
AcDbEntity
  8
pad
100
AcDbCircle
 10
1.1912
 20
-2.5693
 30
0.0
 40
0.0375
100
AcDbArc
 50
240.217162
 51
60.08453999999999
  0
LINE
  5
67
330
18
100
AcDbEntity
  8
pad
100
AcDbLine
 10
1.1286
 20
-2.5764
 30
0.0
 11
1.1726
 21
-2.6018
 31
0.0
  0
LINE
  5
68
330
18
100
AcDbEntity
  8
pad
100
AcDbLine
 10
1.1661
 20
-2.5114
 30
0.0
 11
1.2099
 21
-2.5368
 31
0.0
  0
ARC
  5
69
330
18
100
AcDbEntity
  8
pad
100
AcDbCircle
 10
1.9412
 20
-2.5693
 30
0.0
 40
0.0375
100
AcDbArc
 50
240.217162
 51
60.08453999999999
  0
LINE
  5
6A
330
18
100
AcDbEntity
  8
pad
100
AcDbLine
 10
1.8786
 20
-2.5764
 30
0.0
 11
1.9226
 21
-2.6018
 31
0.0
  0
LINE
  5
6B
330
18
100
AcDbEntity
  8
pad
100
AcDbLine
 10
1.9161
 20
-2.5114
 30
0.0
 11
1.9599
 21
-2.5368
 31
0.0
  0
ARC
  5
6C
330
18
100
AcDbEntity
  8
pad
100
AcDbCircle
 10
2.6912
 20
-2.5693
 30
0.0
 40
0.0375
100
AcDbArc
 50
240.217162
 51
60.08453999999999
  0
LINE
  5
6D
330
18
100
AcDbEntity
  8
pad
100
AcDbLine
 10
2.6286
 20
-2.5764
 30
0.0
 11
2.6726
 21
-2.6018
 31
0.0
  0
LINE
  5
6E
330
18
100
AcDbEntity
  8
pad
100
AcDbLine
 10
2.6661
 20
-2.5114
 30
0.0
 11
2.7099
 21
-2.5368
 31
0.0
  0
ARC
  5
6F
330
18
100
AcDbEntity
  8
pad
100
AcDbCircle
 10
3.4412
 20
-2.5693
 30
0.0
 40
0.0375
100
AcDbArc
 50
240.217162
 51
60.08453999999999
  0
LINE
  5
70
330
18
100
AcDbEntity
  8
pad
100
AcDbLine
 10
3.3786
 20
-2.5764
 30
0.0
 11
3.4226
 21
-2.6018
 31
0.0
  0
LINE
  5
71
330
18
100
AcDbEntity
  8
pad
100
AcDbLine
 10
3.4161
 20
-2.5114
 30
0.0
 11
3.4599
 21
-2.5368
 31
0.0
  0
ARC
  5
72
330
18
100
AcDbEntity
  8
pad
100
AcDbCircle
 10
4.1912
 20
-2.5693
 30
0.0
 40
0.0375
100
AcDbArc
 50
240.217162
 51
60.08453999999999
  0
LINE
  5
73
330
18
100
AcDbEntity
  8
pad
100
AcDbLine
 10
4.1286
 20
-2.5764
 30
0.0
 11
4.1726
 21
-2.6018
 31
0.0
  0
LINE
  5
74
330
18
100
AcDbEntity
  8
pad
100
AcDbLine
 10
4.1661
 20
-2.5114
 30
0.0
 11
4.2099
 21
-2.5368
 31
0.0
  0
ARC
  5
75
330
18
100
AcDbEntity
  8
pad
100
AcDbCircle
 10
4.9412
 20
-2.5693
 30
0.0
 40
0.0375
100
AcDbArc
 50
240.217162
 51
60.08453999999999
  0
LINE
  5
76
330
18
100
AcDbEntity
  8
pad
100
AcDbLine
 10
4.8786
 20
-2.5764
 30
0.0
 11
4.9226
 21
-2.6018
 31
0.0
  0
LINE
  5
77
330
18
100
AcDbEntity
  8
pad
100
AcDbLine
 10
4.9161
 20
-2.5114
 30
0.0
 11
4.9599
 21
-2.5368
 31
0.0
  0
ARC
  5
78
330
18
100
AcDbEntity
  8
pad
100
AcDbCircle
 10
0.4412
 20
-3.3793
 30
0.0
 40
0.0375
100
AcDbArc
 50
240.217162
 51
60.08453999999999
  0
LINE
  5
79
330
18
100
AcDbEntity
  8
pad
100
AcDbLine
 10
0.3786
 20
-3.3864
 30
0.0
 11
0.4226
 21
-3.4118
 31
0.0
  0
LINE
  5
7A
330
18
100
AcDbEntity
  8
pad
100
AcDbLine
 10
0.4161
 20
-3.3214
 30
0.0
 11
0.4599
 21
-3.3468
 31
0.0
  0
ARC
  5
7B
330
18
100
AcDbEntity
  8
pad
100
AcDbCircle
 10
5.6912
 20
-2.5693
 30
0.0
 40
0.0375
100
AcDbArc
 50
240.217162
 51
60.08453999999999
  0
LINE
  5
7C
330
18
100
AcDbEntity
  8
pad
100
AcDbLine
 10
5.6286
 20
-2.5764
 30
0.0
 11
5.6726
 21
-2.6018
 31
0.0
  0
LINE
  5
7D
330
18
100
AcDbEntity
  8
pad
100
AcDbLine
 10
5.6661
 20
-2.5114
 30
0.0
 11
5.7099
 21
-2.5368
 31
0.0
  0
ARC
  5
7E
330
18
100
AcDbEntity
  8
pad
100
AcDbCircle
 10
6.2412
 20
-0.1393
 30
0.0
 40
0.0375
100
AcDbArc
 50
240.217162
 51
60.08453999999999
  0
LINE
  5
7F
330
18
100
AcDbEntity
  8
pad
100
AcDbLine
 10
6.1786
 20
-0.1464
 30
0.0
 11
6.2226
 21
-0.1718
 31
0.0
  0
LINE
  5
80
330
18
100
AcDbEntity
  8
pad
100
AcDbLine
 10
6.2161
 20
-0.0814
 30
0.0
 11
6.2599
 21
-0.1068
 31
0.0
  0
ARC
  5
81
330
18
100
AcDbEntity
  8
pad
100
AcDbCircle
 10
6.9912
 20
-0.1393
 30
0.0
 40
0.0375
100
AcDbArc
 50
240.217162
 51
60.08453999999999
  0
LINE
  5
82
330
18
100
AcDbEntity
  8
pad
100
AcDbLine
 10
6.9286
 20
-0.1464
 30
0.0
 11
6.9726
 21
-0.1718
 31
0.0
  0
LINE
  5
83
330
18
100
AcDbEntity
  8
pad
100
AcDbLine
 10
6.9661
 20
-0.0814
 30
0.0
 11
7.0099
 21
-0.1068
 31
0.0
  0
ARC
  5
84
330
18
100
AcDbEntity
  8
pad
100
AcDbCircle
 10
7.7412
 20
-0.1393
 30
0.0
 40
0.0375
100
AcDbArc
 50
240.217162
 51
60.08453999999999
  0
LINE
  5
85
330
18
100
AcDbEntity
  8
pad
100
AcDbLine
 10
7.6786
 20
-0.1464
 30
0.0
 11
7.7226
 21
-0.1718
 31
0.0
  0
LINE
  5
86
330
18
100
AcDbEntity
  8
pad
100
AcDbLine
 10
7.7161
 20
-0.0814
 30
0.0
 11
7.7599
 21
-0.1068
 31
0.0
  0
ARC
  5
87
330
18
100
AcDbEntity
  8
pad
100
AcDbCircle
 10
8.4912
 20
-0.1393
 30
0.0
 40
0.0375
100
AcDbArc
 50
240.217162
 51
60.08453999999999
  0
LINE
  5
88
330
18
100
AcDbEntity
  8
pad
100
AcDbLine
 10
8.4286
 20
-0.1464
 30
0.0
 11
8.4726
 21
-0.1718
 31
0.0
  0
LINE
  5
89
330
18
100
AcDbEntity
  8
pad
100
AcDbLine
 10
8.4661
 20
-0.0814
 30
0.0
 11
8.5099
 21
-0.1068
 31
0.0
  0
ARC
  5
8A
330
18
100
AcDbEntity
  8
pad
100
AcDbCircle
 10
9.2412
 20
-0.1393
 30
0.0
 40
0.0375
100
AcDbArc
 50
240.217162
 51
60.08453999999999
  0
LINE
  5
8B
330
18
100
AcDbEntity
  8
pad
100
AcDbLine
 10
9.1786
 20
-0.1464
 30
0.0
 11
9.2226
 21
-0.1718
 31
0.0
  0
LINE
  5
8C
330
18
100
AcDbEntity
  8
pad
100
AcDbLine
 10
9.2161
 20
-0.0814
 30
0.0
 11
9.2599
 21
-0.1068
 31
0.0
  0
ARC
  5
8D
330
18
100
AcDbEntity
  8
pad
100
AcDbCircle
 10
9.9912
 20
-0.1393
 30
0.0
 40
0.0375
100
AcDbArc
 50
240.217162
 51
60.08453999999999
  0
LINE
  5
8E
330
18
100
AcDbEntity
  8
pad
100
AcDbLine
 10
9.9286
 20
-0.1464
 30
0.0
 11
9.9726
 21
-0.1718
 31
0.0
  0
LINE
  5
8F
330
18
100
AcDbEntity
  8
pad
100
AcDbLine
 10
9.9661
 20
-0.0814
 30
0.0
 11
10.0099
 21
-0.1068
 31
0.0
  0
ARC
  5
90
330
18
100
AcDbEntity
  8
pad
100
AcDbCircle
 10
10.7412
 20
-0.1393
 30
0.0
 40
0.0375
100
AcDbArc
 50
240.217162
 51
60.08453999999999
  0
LINE
  5
91
330
18
100
AcDbEntity
  8
pad
100
AcDbLine
 10
10.6786
 20
-0.1464
 30
0.0
 11
10.7226
 21
-0.1718
 31
0.0
  0
LINE
  5
92
330
18
100
AcDbEntity
  8
pad
100
AcDbLine
 10
10.7161
 20
-0.0814
 30
0.0
 11
10.7599
 21
-0.1068
 31
0.0
  0
ARC
  5
93
330
18
100
AcDbEntity
  8
pad
100
AcDbCircle
 10
10.5662
 20
-0.9493
 30
0.0
 40
0.0375
100
AcDbArc
 50
240.217162
 51
60.08453999999999
  0
LINE
  5
94
330
18
100
AcDbEntity
  8
pad
100
AcDbLine
 10
10.5036
 20
-0.9564
 30
0.0
 11
10.5476
 21
-0.9818
 31
0.0
  0
LINE
  5
95
330
18
100
AcDbEntity
  8
pad
100
AcDbLine
 10
10.5411
 20
-0.8914
 30
0.0
 11
10.5849
 21
-0.9168
 31
0.0
  0
ARC
  5
96
330
18
100
AcDbEntity
  8
pad
100
AcDbCircle
 10
9.6162
 20
-0.9493
 30
0.0
 40
0.0375
100
AcDbArc
 50
240.217162
 51
60.08453999999999
  0
LINE
  5
97
330
18
100
AcDbEntity
  8
pad
100
AcDbLine
 10
9.5536
 20
-0.9564
 30
0.0
 11
9.5976
 21
-0.9818
 31
0.0
  0
LINE
  5
98
330
18
100
AcDbEntity
  8
pad
100
AcDbLine
 10
9.5911
 20
-0.8914
 30
0.0
 11
9.6349
 21
-0.9168
 31
0.0
  0
ARC
  5
99
330
18
100
AcDbEntity
  8
pad
100
AcDbCircle
 10
8.8662
 20
-0.9493
 30
0.0
 40
0.0375
100
AcDbArc
 50
240.217162
 51
60.08453999999999
  0
LINE
  5
9A
330
18
100
AcDbEntity
  8
pad
100
AcDbLine
 10
8.8036
 20
-0.9564
 30
0.0
 11
8.8476
 21
-0.9818
 31
0.0
  0
LINE
  5
9B
330
18
100
AcDbEntity
  8
pad
100
AcDbLine
 10
8.8411
 20
-0.8914
 30
0.0
 11
8.8849
 21
-0.9168
 31
0.0
  0
ARC
  5
9C
330
18
100
AcDbEntity
  8
pad
100
AcDbCircle
 10
8.1162
 20
-0.9493
 30
0.0
 40
0.0375
100
AcDbArc
 50
240.217162
 51
60.08453999999999
  0
LINE
  5
9D
330
18
100
AcDbEntity
  8
pad
100
AcDbLine
 10
8.0536
 20
-0.9564
 30
0.0
 11
8.0976
 21
-0.9818
 31
0.0
  0
LINE
  5
9E
330
18
100
AcDbEntity
  8
pad
100
AcDbLine
 10
8.0911
 20
-0.8914
 30
0.0
 11
8.1349
 21
-0.9168
 31
0.0
  0
ARC
  5
9F
330
18
100
AcDbEntity
  8
pad
100
AcDbCircle
 10
7.3662
 20
-0.9493
 30
0.0
 40
0.0375
100
AcDbArc
 50
240.217162
 51
60.08453999999999
  0
LINE
  5
A0
330
18
100
AcDbEntity
  8
pad
100
AcDbLine
 10
7.3036
 20
-0.9564
 30
0.0
 11
7.3476
 21
-0.9818
 31
0.0
  0
LINE
  5
A1
330
18
100
AcDbEntity
  8
pad
100
AcDbLine
 10
7.3411
 20
-0.8914
 30
0.0
 11
7.3849
 21
-0.9168
 31
0.0
  0
ARC
  5
A2
330
18
100
AcDbEntity
  8
pad
100
AcDbCircle
 10
6.6162
 20
-0.9493
 30
0.0
 40
0.0375
100
AcDbArc
 50
240.217162
 51
60.08453999999999
  0
LINE
  5
A3
330
18
100
AcDbEntity
  8
pad
100
AcDbLine
 10
6.5536
 20
-0.9564
 30
0.0
 11
6.5976
 21
-0.9818
 31
0.0
  0
LINE
  5
A4
330
18
100
AcDbEntity
  8
pad
100
AcDbLine
 10
6.5911
 20
-0.8914
 30
0.0
 11
6.6349
 21
-0.9168
 31
0.0
  0
ARC
  5
A5
330
18
100
AcDbEntity
  8
pad
100
AcDbCircle
 10
5.8662
 20
-0.9493
 30
0.0
 40
0.0375
100
AcDbArc
 50
240.217162
 51
60.08453999999999
  0
LINE
  5
A6
330
18
100
AcDbEntity
  8
pad
100
AcDbLine
 10
5.8036
 20
-0.9564
 30
0.0
 11
5.8476
 21
-0.9818
 31
0.0
  0
LINE
  5
A7
330
18
100
AcDbEntity
  8
pad
100
AcDbLine
 10
5.8411
 20
-0.8914
 30
0.0
 11
5.8849
 21
-0.9168
 31
0.0
  0
ARC
  5
A8
330
18
100
AcDbEntity
  8
pad
100
AcDbCircle
 10
6.0662
 20
-1.7593
 30
0.0
 40
0.0375
100
AcDbArc
 50
240.217162
 51
60.08453999999999
  0
LINE
  5
A9
330
18
100
AcDbEntity
  8
pad
100
AcDbLine
 10
6.0036
 20
-1.7664
 30
0.0
 11
6.0476
 21
-1.7918
 31
0.0
  0
LINE
  5
AA
330
18
100
AcDbEntity
  8
pad
100
AcDbLine
 10
6.0411
 20
-1.7014
 30
0.0
 11
6.0849
 21
-1.7268
 31
0.0
  0
ARC
  5
AB
330
18
100
AcDbEntity
  8
pad
100
AcDbCircle
 10
6.8162
 20
-1.7593
 30
0.0
 40
0.0375
100
AcDbArc
 50
240.217162
 51
60.08453999999999
  0
LINE
  5
AC
330
18
100
AcDbEntity
  8
pad
100
AcDbLine
 10
6.7536
 20
-1.7664
 30
0.0
 11
6.7976
 21
-1.7918
 31
0.0
  0
LINE
  5
AD
330
18
100
AcDbEntity
  8
pad
100
AcDbLine
 10
6.7911
 20
-1.7014
 30
0.0
 11
6.8349
 21
-1.7268
 31
0.0
  0
ARC
  5
AE
330
18
100
AcDbEntity
  8
pad
100
AcDbCircle
 10
7.5662
 20
-1.7593
 30
0.0
 40
0.0375
100
AcDbArc
 50
240.217162
 51
60.08453999999999
  0
LINE
  5
AF
330
18
100
AcDbEntity
  8
pad
100
AcDbLine
 10
7.5036
 20
-1.7664
 30
0.0
 11
7.5476
 21
-1.7918
 31
0.0
  0
LINE
  5
B0
330
18
100
AcDbEntity
  8
pad
100
AcDbLine
 10
7.5411
 20
-1.7014
 30
0.0
 11
7.5849
 21
-1.7268
 31
0.0
  0
ARC
  5
B1
330
18
100
AcDbEntity
  8
pad
100
AcDbCircle
 10
8.3162
 20
-1.7593
 30
0.0
 40
0.0375
100
AcDbArc
 50
240.217162
 51
60.08453999999999
  0
LINE
  5
B2
330
18
100
AcDbEntity
  8
pad
100
AcDbLine
 10
8.2536
 20
-1.7664
 30
0.0
 11
8.2976
 21
-1.7918
 31
0.0
  0
LINE
  5
B3
330
18
100
AcDbEntity
  8
pad
100
AcDbLine
 10
8.2911
 20
-1.7014
 30
0.0
 11
8.3349
 21
-1.7268
 31
0.0
  0
ARC
  5
B4
330
18
100
AcDbEntity
  8
pad
100
AcDbCircle
 10
9.0662
 20
-1.7593
 30
0.0
 40
0.0375
100
AcDbArc
 50
240.217162
 51
60.08453999999999
  0
LINE
  5
B5
330
18
100
AcDbEntity
  8
pad
100
AcDbLine
 10
9.0036
 20
-1.7664
 30
0.0
 11
9.0476
 21
-1.7918
 31
0.0
  0
LINE
  5
B6
330
18
100
AcDbEntity
  8
pad
100
AcDbLine
 10
9.0411
 20
-1.7014
 30
0.0
 11
9.0849
 21
-1.7268
 31
0.0
  0
ARC
  5
B7
330
18
100
AcDbEntity
  8
pad
100
AcDbCircle
 10
9.8162
 20
-1.7593
 30
0.0
 40
0.0375
100
AcDbArc
 50
240.217162
 51
60.08453999999999
  0
LINE
  5
B8
330
18
100
AcDbEntity
  8
pad
100
AcDbLine
 10
9.7536
 20
-1.7664
 30
0.0
 11
9.7976
 21
-1.7918
 31
0.0
  0
LINE
  5
B9
330
18
100
AcDbEntity
  8
pad
100
AcDbLine
 10
9.7911
 20
-1.7014
 30
0.0
 11
9.8349
 21
-1.7268
 31
0.0
  0
ARC
  5
BA
330
18
100
AcDbEntity
  8
pad
100
AcDbCircle
 10
10.6412
 20
-1.7593
 30
0.0
 40
0.0375
100
AcDbArc
 50
240.217162
 51
60.08453999999999
  0
LINE
  5
BB
330
18
100
AcDbEntity
  8
pad
100
AcDbLine
 10
10.5786
 20
-1.7664
 30
0.0
 11
10.6226
 21
-1.7918
 31
0.0
  0
LINE
  5
BC
330
18
100
AcDbEntity
  8
pad
100
AcDbLine
 10
10.6161
 20
-1.7014
 30
0.0
 11
10.6599
 21
-1.7268
 31
0.0
  0
ARC
  5
BD
330
18
100
AcDbEntity
  8
pad
100
AcDbCircle
 10
10.3912
 20
-2.5693
 30
0.0
 40
0.0375
100
AcDbArc
 50
240.217162
 51
60.08453999999999
  0
LINE
  5
BE
330
18
100
AcDbEntity
  8
pad
100
AcDbLine
 10
10.3286
 20
-2.5764
 30
0.0
 11
10.3726
 21
-2.6018
 31
0.0
  0
LINE
  5
BF
330
18
100
AcDbEntity
  8
pad
100
AcDbLine
 10
10.3661
 20
-2.5114
 30
0.0
 11
10.4099
 21
-2.5368
 31
0.0
  0
ARC
  5
C0
330
18
100
AcDbEntity
  8
pad
100
AcDbCircle
 10
9.4412
 20
-2.5693
 30
0.0
 40
0.0375
100
AcDbArc
 50
240.217162
 51
60.08453999999999
  0
LINE
  5
C1
330
18
100
AcDbEntity
  8
pad
100
AcDbLine
 10
9.3786
 20
-2.5764
 30
0.0
 11
9.4226
 21
-2.6018
 31
0.0
  0
LINE
  5
C2
330
18
100
AcDbEntity
  8
pad
100
AcDbLine
 10
9.4161
 20
-2.5114
 30
0.0
 11
9.4599
 21
-2.5368
 31
0.0
  0
ARC
  5
C3
330
18
100
AcDbEntity
  8
pad
100
AcDbCircle
 10
8.6912
 20
-2.5693
 30
0.0
 40
0.0375
100
AcDbArc
 50
240.217162
 51
60.08453999999999
  0
LINE
  5
C4
330
18
100
AcDbEntity
  8
pad
100
AcDbLine
 10
8.6286
 20
-2.5764
 30
0.0
 11
8.6726
 21
-2.6018
 31
0.0
  0
LINE
  5
C5
330
18
100
AcDbEntity
  8
pad
100
AcDbLine
 10
8.6661
 20
-2.5114
 30
0.0
 11
8.7099
 21
-2.5368
 31
0.0
  0
ARC
  5
C6
330
18
100
AcDbEntity
  8
pad
100
AcDbCircle
 10
7.9412
 20
-2.5693
 30
0.0
 40
0.0375
100
AcDbArc
 50
240.217162
 51
60.08453999999999
  0
LINE
  5
C7
330
18
100
AcDbEntity
  8
pad
100
AcDbLine
 10
7.8786
 20
-2.5764
 30
0.0
 11
7.9226
 21
-2.6018
 31
0.0
  0
LINE
  5
C8
330
18
100
AcDbEntity
  8
pad
100
AcDbLine
 10
7.9161
 20
-2.5114
 30
0.0
 11
7.9599
 21
-2.5368
 31
0.0
  0
ARC
  5
C9
330
18
100
AcDbEntity
  8
pad
100
AcDbCircle
 10
7.1912
 20
-2.5693
 30
0.0
 40
0.0375
100
AcDbArc
 50
240.217162
 51
60.08453999999999
  0
LINE
  5
CA
330
18
100
AcDbEntity
  8
pad
100
AcDbLine
 10
7.1286
 20
-2.5764
 30
0.0
 11
7.1726
 21
-2.6018
 31
0.0
  0
LINE
  5
CB
330
18
100
AcDbEntity
  8
pad
100
AcDbLine
 10
7.1661
 20
-2.5114
 30
0.0
 11
7.2099
 21
-2.5368
 31
0.0
  0
ARC
  5
CC
330
18
100
AcDbEntity
  8
pad
100
AcDbCircle
 10
6.4412
 20
-2.5693
 30
0.0
 40
0.0375
100
AcDbArc
 50
240.217162
 51
60.08453999999999
  0
LINE
  5
CD
330
18
100
AcDbEntity
  8
pad
100
AcDbLine
 10
6.3786
 20
-2.5764
 30
0.0
 11
6.4226
 21
-2.6018
 31
0.0
  0
LINE
  5
CE
330
18
100
AcDbEntity
  8
pad
100
AcDbLine
 10
6.4161
 20
-2.5114
 30
0.0
 11
6.4599
 21
-2.5368
 31
0.0
  0
ARC
  5
CF
330
18
100
AcDbEntity
  8
pad
100
AcDbCircle
 10
10.5662
 20
-3.3793
 30
0.0
 40
0.0375
100
AcDbArc
 50
240.217162
 51
60.08453999999999
  0
LINE
  5
D0
330
18
100
AcDbEntity
  8
pad
100
AcDbLine
 10
10.5036
 20
-3.3864
 30
0.0
 11
10.5476
 21
-3.4118
 31
0.0
  0
LINE
  5
D1
330
18
100
AcDbEntity
  8
pad
100
AcDbLine
 10
10.5411
 20
-3.3214
 30
0.0
 11
10.5849
 21
-3.3468
 31
0.0
  0
ARC
  5
D2
330
18
100
AcDbEntity
  8
pad
100
AcDbCircle
 10
11.8412
 20
-0.1393
 30
0.0
 40
0.0375
100
AcDbArc
 50
240.217162
 51
60.08453999999999
  0
LINE
  5
D3
330
18
100
AcDbEntity
  8
pad
100
AcDbLine
 10
11.7786
 20
-0.1464
 30
0.0
 11
11.8226
 21
-0.1718
 31
0.0
  0
LINE
  5
D4
330
18
100
AcDbEntity
  8
pad
100
AcDbLine
 10
11.8161
 20
-0.0814
 30
0.0
 11
11.8599
 21
-0.1068
 31
0.0
  0
ARC
  5
D5
330
18
100
AcDbEntity
  8
pad
100
AcDbCircle
 10
12.5912
 20
-0.1393
 30
0.0
 40
0.0375
100
AcDbArc
 50
240.217162
 51
60.08453999999999
  0
LINE
  5
D6
330
18
100
AcDbEntity
  8
pad
100
AcDbLine
 10
12.5286
 20
-0.1464
 30
0.0
 11
12.5726
 21
-0.1718
 31
0.0
  0
LINE
  5
D7
330
18
100
AcDbEntity
  8
pad
100
AcDbLine
 10
12.5661
 20
-0.0814
 30
0.0
 11
12.6099
 21
-0.1068
 31
0.0
  0
ARC
  5
D8
330
18
100
AcDbEntity
  8
pad
100
AcDbCircle
 10
13.3412
 20
-0.1393
 30
0.0
 40
0.0375
100
AcDbArc
 50
240.217162
 51
60.08453999999999
  0
LINE
  5
D9
330
18
100
AcDbEntity
  8
pad
100
AcDbLine
 10
13.2786
 20
-0.1464
 30
0.0
 11
13.3226
 21
-0.1718
 31
0.0
  0
LINE
  5
DA
330
18
100
AcDbEntity
  8
pad
100
AcDbLine
 10
13.3161
 20
-0.0814
 30
0.0
 11
13.3599
 21
-0.1068
 31
0.0
  0
ARC
  5
DB
330
18
100
AcDbEntity
  8
pad
100
AcDbCircle
 10
14.0912
 20
-0.1393
 30
0.0
 40
0.0375
100
AcDbArc
 50
240.217162
 51
60.08453999999999
  0
LINE
  5
DC
330
18
100
AcDbEntity
  8
pad
100
AcDbLine
 10
14.0286
 20
-0.1464
 30
0.0
 11
14.0726
 21
-0.1718
 31
0.0
  0
LINE
  5
DD
330
18
100
AcDbEntity
  8
pad
100
AcDbLine
 10
14.0661
 20
-0.0814
 30
0.0
 11
14.1099
 21
-0.1068
 31
0.0
  0
ARC
  5
DE
330
18
100
AcDbEntity
  8
pad
100
AcDbCircle
 10
11.8412
 20
-0.9493
 30
0.0
 40
0.0375
100
AcDbArc
 50
240.217162
 51
60.08453999999999
  0
LINE
  5
DF
330
18
100
AcDbEntity
  8
pad
100
AcDbLine
 10
11.7786
 20
-0.9564
 30
0.0
 11
11.8226
 21
-0.9818
 31
0.0
  0
LINE
  5
E0
330
18
100
AcDbEntity
  8
pad
100
AcDbLine
 10
11.8161
 20
-0.8914
 30
0.0
 11
11.8599
 21
-0.9168
 31
0.0
  0
ARC
  5
E1
330
18
100
AcDbEntity
  8
pad
100
AcDbCircle
 10
12.5912
 20
-0.9493
 30
0.0
 40
0.0375
100
AcDbArc
 50
240.217162
 51
60.08453999999999
  0
LINE
  5
E2
330
18
100
AcDbEntity
  8
pad
100
AcDbLine
 10
12.5286
 20
-0.9564
 30
0.0
 11
12.5726
 21
-0.9818
 31
0.0
  0
LINE
  5
E3
330
18
100
AcDbEntity
  8
pad
100
AcDbLine
 10
12.5661
 20
-0.8914
 30
0.0
 11
12.6099
 21
-0.9168
 31
0.0
  0
ARC
  5
E4
330
18
100
AcDbEntity
  8
pad
100
AcDbCircle
 10
13.3412
 20
-0.9493
 30
0.0
 40
0.0375
100
AcDbArc
 50
240.217162
 51
60.08453999999999
  0
LINE
  5
E5
330
18
100
AcDbEntity
  8
pad
100
AcDbLine
 10
13.2786
 20
-0.9564
 30
0.0
 11
13.3226
 21
-0.9818
 31
0.0
  0
LINE
  5
E6
330
18
100
AcDbEntity
  8
pad
100
AcDbLine
 10
13.3161
 20
-0.8914
 30
0.0
 11
13.3599
 21
-0.9168
 31
0.0
  0
ARC
  5
E7
330
18
100
AcDbEntity
  8
pad
100
AcDbCircle
 10
14.0912
 20
-0.9493
 30
0.0
 40
0.0375
100
AcDbArc
 50
240.217162
 51
60.08453999999999
  0
LINE
  5
E8
330
18
100
AcDbEntity
  8
pad
100
AcDbLine
 10
14.0286
 20
-0.9564
 30
0.0
 11
14.0726
 21
-0.9818
 31
0.0
  0
LINE
  5
E9
330
18
100
AcDbEntity
  8
pad
100
AcDbLine
 10
14.0661
 20
-0.8914
 30
0.0
 11
14.1099
 21
-0.9168
 31
0.0
  0
ARC
  5
EA
330
18
100
AcDbEntity
  8
pad
100
AcDbCircle
 10
11.8412
 20
-1.7593
 30
0.0
 40
0.0375
100
AcDbArc
 50
240.217162
 51
60.08453999999999
  0
LINE
  5
EB
330
18
100
AcDbEntity
  8
pad
100
AcDbLine
 10
11.7786
 20
-1.7664
 30
0.0
 11
11.8226
 21
-1.7918
 31
0.0
  0
LINE
  5
EC
330
18
100
AcDbEntity
  8
pad
100
AcDbLine
 10
11.8161
 20
-1.7014
 30
0.0
 11
11.8599
 21
-1.7268
 31
0.0
  0
ARC
  5
ED
330
18
100
AcDbEntity
  8
pad
100
AcDbCircle
 10
12.5912
 20
-1.7593
 30
0.0
 40
0.0375
100
AcDbArc
 50
240.217162
 51
60.08453999999999
  0
LINE
  5
EE
330
18
100
AcDbEntity
  8
pad
100
AcDbLine
 10
12.5286
 20
-1.7664
 30
0.0
 11
12.5726
 21
-1.7918
 31
0.0
  0
LINE
  5
EF
330
18
100
AcDbEntity
  8
pad
100
AcDbLine
 10
12.5661
 20
-1.7014
 30
0.0
 11
12.6099
 21
-1.7268
 31
0.0
  0
ARC
  5
F0
330
18
100
AcDbEntity
  8
pad
100
AcDbCircle
 10
13.3412
 20
-1.7593
 30
0.0
 40
0.0375
100
AcDbArc
 50
240.217162
 51
60.08453999999999
  0
LINE
  5
F1
330
18
100
AcDbEntity
  8
pad
100
AcDbLine
 10
13.2786
 20
-1.7664
 30
0.0
 11
13.3226
 21
-1.7918
 31
0.0
  0
LINE
  5
F2
330
18
100
AcDbEntity
  8
pad
100
AcDbLine
 10
13.3161
 20
-1.7014
 30
0.0
 11
13.3599
 21
-1.7268
 31
0.0
  0
ARC
  5
F3
330
18
100
AcDbEntity
  8
pad
100
AcDbCircle
 10
14.0912
 20
-1.7593
 30
0.0
 40
0.0375
100
AcDbArc
 50
240.217162
 51
60.08453999999999
  0
LINE
  5
F4
330
18
100
AcDbEntity
  8
pad
100
AcDbLine
 10
14.0286
 20
-1.7664
 30
0.0
 11
14.0726
 21
-1.7918
 31
0.0
  0
LINE
  5
F5
330
18
100
AcDbEntity
  8
pad
100
AcDbLine
 10
14.0661
 20
-1.7014
 30
0.0
 11
14.1099
 21
-1.7268
 31
0.0
  0
ARC
  5
F6
330
18
100
AcDbEntity
  8
pad
100
AcDbCircle
 10
11.8412
 20
-2.5693
 30
0.0
 40
0.0375
100
AcDbArc
 50
240.217162
 51
60.08453999999999
  0
LINE
  5
F7
330
18
100
AcDbEntity
  8
pad
100
AcDbLine
 10
11.7786
 20
-2.5764
 30
0.0
 11
11.8226
 21
-2.6018
 31
0.0
  0
LINE
  5
F8
330
18
100
AcDbEntity
  8
pad
100
AcDbLine
 10
11.8161
 20
-2.5114
 30
0.0
 11
11.8599
 21
-2.5368
 31
0.0
  0
ARC
  5
F9
330
18
100
AcDbEntity
  8
pad
100
AcDbCircle
 10
12.5912
 20
-2.5693
 30
0.0
 40
0.0375
100
AcDbArc
 50
240.217162
 51
60.08453999999999
  0
LINE
  5
FA
330
18
100
AcDbEntity
  8
pad
100
AcDbLine
 10
12.5286
 20
-2.5764
 30
0.0
 11
12.5726
 21
-2.6018
 31
0.0
  0
LINE
  5
FB
330
18
100
AcDbEntity
  8
pad
100
AcDbLine
 10
12.5661
 20
-2.5114
 30
0.0
 11
12.6099
 21
-2.5368
 31
0.0
  0
ARC
  5
FC
330
18
100
AcDbEntity
  8
pad
100
AcDbCircle
 10
13.3412
 20
-2.5693
 30
0.0
 40
0.0375
100
AcDbArc
 50
240.217162
 51
60.08453999999999
  0
LINE
  5
FD
330
18
100
AcDbEntity
  8
pad
100
AcDbLine
 10
13.2786
 20
-2.5764
 30
0.0
 11
13.3226
 21
-2.6018
 31
0.0
  0
LINE
  5
FE
330
18
100
AcDbEntity
  8
pad
100
AcDbLine
 10
13.3161
 20
-2.5114
 30
0.0
 11
13.3599
 21
-2.5368
 31
0.0
  0
ARC
  5
FF
330
18
100
AcDbEntity
  8
pad
100
AcDbCircle
 10
14.0912
 20
-2.5693
 30
0.0
 40
0.0375
100
AcDbArc
 50
240.217162
 51
60.08453999999999
  0
LINE
  5
100
330
18
100
AcDbEntity
  8
pad
100
AcDbLine
 10
14.0286
 20
-2.5764
 30
0.0
 11
14.0726
 21
-2.6018
 31
0.0
  0
LINE
  5
101
330
18
100
AcDbEntity
  8
pad
100
AcDbLine
 10
14.0661
 20
-2.5114
 30
0.0
 11
14.1099
 21
-2.5368
 31
0.0
  0
ARC
  5
102
330
18
100
AcDbEntity
  8
pad
100
AcDbCircle
 10
11.8412
 20
-3.3793
 30
0.0
 40
0.0375
100
AcDbArc
 50
240.217162
 51
60.08453999999999
  0
LINE
  5
103
330
18
100
AcDbEntity
  8
pad
100
AcDbLine
 10
11.7786
 20
-3.3864
 30
0.0
 11
11.8226
 21
-3.4118
 31
0.0
  0
LINE
  5
104
330
18
100
AcDbEntity
  8
pad
100
AcDbLine
 10
11.8161
 20
-3.3214
 30
0.0
 11
11.8599
 21
-3.3468
 31
0.0
  0
ARC
  5
105
330
18
100
AcDbEntity
  8
pad
100
AcDbCircle
 10
12.5912
 20
-3.3793
 30
0.0
 40
0.0375
100
AcDbArc
 50
240.217162
 51
60.08453999999999
  0
LINE
  5
106
330
18
100
AcDbEntity
  8
pad
100
AcDbLine
 10
12.5286
 20
-3.3864
 30
0.0
 11
12.5726
 21
-3.4118
 31
0.0
  0
LINE
  5
107
330
18
100
AcDbEntity
  8
pad
100
AcDbLine
 10
12.5661
 20
-3.3214
 30
0.0
 11
12.6099
 21
-3.3468
 31
0.0
  0
ARC
  5
108
330
18
100
AcDbEntity
  8
pad
100
AcDbCircle
 10
13.3412
 20
-3.3793
 30
0.0
 40
0.0375
100
AcDbArc
 50
240.217162
 51
60.08453999999999
  0
LINE
  5
109
330
18
100
AcDbEntity
  8
pad
100
AcDbLine
 10
13.2786
 20
-3.3864
 30
0.0
 11
13.3226
 21
-3.4118
 31
0.0
  0
LINE
  5
10A
330
18
100
AcDbEntity
  8
pad
100
AcDbLine
 10
13.3161
 20
-3.3214
 30
0.0
 11
13.3599
 21
-3.3468
 31
0.0
  0
ARC
  5
10B
330
18
100
AcDbEntity
  8
pad
100
AcDbCircle
 10
14.0912
 20
-3.3793
 30
0.0
 40
0.0375
100
AcDbArc
 50
240.217162
 51
60.08453999999999
  0
LINE
  5
10C
330
18
100
AcDbEntity
  8
pad
100
AcDbLine
 10
14.0286
 20
-3.3864
 30
0.0
 11
14.0726
 21
-3.4118
 31
0.0
  0
LINE
  5
10D
330
18
100
AcDbEntity
  8
pad
100
AcDbLine
 10
14.0661
 20
-3.3214
 30
0.0
 11
14.1099
 21
-3.3468
 31
0.0
  0
ARC
  5
10E
330
18
100
AcDbEntity
  8
pad
100
AcDbCircle
 10
-0.8588
 20
-0.1393
 30
0.0
 40
0.0375
100
AcDbArc
 50
240.217162
 51
60.08453999999999
  0
LINE
  5
10F
330
18
100
AcDbEntity
  8
pad
100
AcDbLine
 10
-0.9214
 20
-0.1464
 30
0.0
 11
-0.8774
 21
-0.1718
 31
0.0
  0
LINE
  5
110
330
18
100
AcDbEntity
  8
pad
100
AcDbLine
 10
-0.8839
 20
-0.0814
 30
0.0
 11
-0.8401
 21
-0.1068
 31
0.0
  0
ARC
  5
111
330
18
100
AcDbEntity
  8
pad
100
AcDbCircle
 10
-1.6088
 20
-0.1393
 30
0.0
 40
0.0375
100
AcDbArc
 50
240.217162
 51
60.08453999999999
  0
LINE
  5
112
330
18
100
AcDbEntity
  8
pad
100
AcDbLine
 10
-1.6714
 20
-0.1464
 30
0.0
 11
-1.6274
 21
-0.1718
 31
0.0
  0
LINE
  5
113
330
18
100
AcDbEntity
  8
pad
100
AcDbLine
 10
-1.6339
 20
-0.0814
 30
0.0
 11
-1.5901
 21
-0.1068
 31
0.0
  0
ARC
  5
114
330
18
100
AcDbEntity
  8
pad
100
AcDbCircle
 10
-0.8588
 20
-0.9493
 30
0.0
 40
0.0375
100
AcDbArc
 50
240.217162
 51
60.08453999999999
  0
LINE
  5
115
330
18
100
AcDbEntity
  8
pad
100
AcDbLine
 10
-0.9214
 20
-0.9564
 30
0.0
 11
-0.8774
 21
-0.9818
 31
0.0
  0
LINE
  5
116
330
18
100
AcDbEntity
  8
pad
100
AcDbLine
 10
-0.8839
 20
-0.8914
 30
0.0
 11
-0.8401
 21
-0.9168
 31
0.0
  0
ARC
  5
117
330
18
100
AcDbEntity
  8
pad
100
AcDbCircle
 10
-1.6088
 20
-0.9493
 30
0.0
 40
0.0375
100
AcDbArc
 50
240.217162
 51
60.08453999999999
  0
LINE
  5
118
330
18
100
AcDbEntity
  8
pad
100
AcDbLine
 10
-1.6714
 20
-0.9564
 30
0.0
 11
-1.6274
 21
-0.9818
 31
0.0
  0
LINE
  5
119
330
18
100
AcDbEntity
  8
pad
100
AcDbLine
 10
-1.6339
 20
-0.8914
 30
0.0
 11
-1.5901
 21
-0.9168
 31
0.0
  0
ARC
  5
11A
330
18
100
AcDbEntity
  8
pad
100
AcDbCircle
 10
-0.8588
 20
-1.7593
 30
0.0
 40
0.0375
100
AcDbArc
 50
240.217162
 51
60.08453999999999
  0
LINE
  5
11B
330
18
100
AcDbEntity
  8
pad
100
AcDbLine
 10
-0.9214
 20
-1.7664
 30
0.0
 11
-0.8774
 21
-1.7918
 31
0.0
  0
LINE
  5
11C
330
18
100
AcDbEntity
  8
pad
100
AcDbLine
 10
-0.8839
 20
-1.7014
 30
0.0
 11
-0.8401
 21
-1.7268
 31
0.0
  0
ARC
  5
11D
330
18
100
AcDbEntity
  8
pad
100
AcDbCircle
 10
-1.6088
 20
-1.7593
 30
0.0
 40
0.0375
100
AcDbArc
 50
240.217162
 51
60.08453999999999
  0
LINE
  5
11E
330
18
100
AcDbEntity
  8
pad
100
AcDbLine
 10
-1.6714
 20
-1.7664
 30
0.0
 11
-1.6274
 21
-1.7918
 31
0.0
  0
LINE
  5
11F
330
18
100
AcDbEntity
  8
pad
100
AcDbLine
 10
-1.6339
 20
-1.7014
 30
0.0
 11
-1.5901
 21
-1.7268
 31
0.0
  0
ARC
  5
120
330
18
100
AcDbEntity
  8
pad
100
AcDbCircle
 10
-0.8588
 20
-2.5693
 30
0.0
 40
0.0375
100
AcDbArc
 50
240.217162
 51
60.08453999999999
  0
LINE
  5
121
330
18
100
AcDbEntity
  8
pad
100
AcDbLine
 10
-0.9214
 20
-2.5764
 30
0.0
 11
-0.8774
 21
-2.6018
 31
0.0
  0
LINE
  5
122
330
18
100
AcDbEntity
  8
pad
100
AcDbLine
 10
-0.8839
 20
-2.5114
 30
0.0
 11
-0.8401
 21
-2.5368
 31
0.0
  0
ARC
  5
123
330
18
100
AcDbEntity
  8
pad
100
AcDbCircle
 10
-1.6088
 20
-2.5693
 30
0.0
 40
0.0375
100
AcDbArc
 50
240.217162
 51
60.08453999999999
  0
LINE
  5
124
330
18
100
AcDbEntity
  8
pad
100
AcDbLine
 10
-1.6714
 20
-2.5764
 30
0.0
 11
-1.6274
 21
-2.6018
 31
0.0
  0
LINE
  5
125
330
18
100
AcDbEntity
  8
pad
100
AcDbLine
 10
-1.6339
 20
-2.5114
 30
0.0
 11
-1.5901
 21
-2.5368
 31
0.0
  0
ARC
  5
126
330
18
100
AcDbEntity
  8
pad
100
AcDbCircle
 10
-0.8588
 20
-3.3793
 30
0.0
 40
0.0375
100
AcDbArc
 50
240.217162
 51
60.08453999999999
  0
LINE
  5
127
330
18
100
AcDbEntity
  8
pad
100
AcDbLine
 10
-0.9214
 20
-3.3864
 30
0.0
 11
-0.8774
 21
-3.4118
 31
0.0
  0
LINE
  5
128
330
18
100
AcDbEntity
  8
pad
100
AcDbLine
 10
-0.8839
 20
-3.3214
 30
0.0
 11
-0.8401
 21
-3.3468
 31
0.0
  0
ARC
  5
129
330
18
100
AcDbEntity
  8
pad
100
AcDbCircle
 10
-1.6088
 20
-3.3793
 30
0.0
 40
0.0375
100
AcDbArc
 50
240.217162
 51
60.08453999999999
  0
LINE
  5
12A
330
18
100
AcDbEntity
  8
pad
100
AcDbLine
 10
-1.6714
 20
-3.3864
 30
0.0
 11
-1.6274
 21
-3.4118
 31
0.0
  0
LINE
  5
12B
330
18
100
AcDbEntity
  8
pad
100
AcDbLine
 10
-1.6339
 20
-3.3214
 30
0.0
 11
-1.5901
 21
-3.3468
 31
0.0
  0
LINE
  5
12C
330
18
100
AcDbEntity
  8
pad
100
AcDbLine
 10
-2.5725
 20
1.122
 30
0.0
 11
14.5725
 21
1.122
 31
0.0
  0
LINE
  5
12D
330
18
100
AcDbEntity
  8
pad
100
AcDbLine
 10
14.5725
 20
-4.153
 30
0.0
 11
14.5725
 21
1.122
 31
0.0
  0
LINE
  5
12E
330
18
100
AcDbEntity
  8
pad
100
AcDbLine
 10
-2.5725
 20
-4.153
 30
0.0
 11
14.5725
 21
-4.153
 31
0.0
  0
LINE
  5
12F
330
18
100
AcDbEntity
  8
pad
100
AcDbLine
 10
-2.5725
 20
-4.153
 30
0.0
 11
-2.5725
 21
1.122
 31
0.0
  0
LINE
  5
130
330
18
100
AcDbEntity
  8
pad
100
AcDbLine
 10
7.0525
 20
-3.596
 30
0.0
 11
8.4525
 21
-3.596
 31
0.0
  0
LINE
  5
131
330
18
100
AcDbEntity
  8
pad
100
AcDbLine
 10
7.0525
 20
-3.596
 30
0.0
 11
7.0525
 21
-3.306
 31
0.0
  0
LINE
  5
132
330
18
100
AcDbEntity
  8
pad
100
AcDbLine
 10
7.9025
 20
-3.306
 30
0.0
 11
7.9025
 21
-2.993
 31
0.0
  0
LINE
  5
133
330
18
100
AcDbEntity
  8
pad
100
AcDbLine
 10
7.9025
 20
-2.993
 30
0.0
 11
8.4525
 21
-2.993
 31
0.0
  0
LINE
  5
134
330
18
100
AcDbEntity
  8
pad
100
AcDbLine
 10
7.0525
 20
-3.306
 30
0.0
 11
7.9025
 21
-3.306
 31
0.0
  0
LINE
  5
135
330
18
100
AcDbEntity
  8
pad
100
AcDbLine
 10
5.6975
 20
-3.596
 30
0.0
 11
5.6975
 21
-3.306
 31
0.0
  0
LINE
  5
136
330
18
100
AcDbEntity
  8
pad
100
AcDbLine
 10
4.8325
 20
-3.596
 30
0.0
 11
5.6975
 21
-3.596
 31
0.0
  0
LINE
  5
137
330
18
100
AcDbEntity
  8
pad
100
AcDbLine
 10
4.8325
 20
-3.596
 30
0.0
 11
4.8325
 21
-3.306
 31
0.0
  0
LINE
  5
138
330
18
100
AcDbEntity
  8
pad
100
AcDbLine
 10
4.8325
 20
-3.306
 30
0.0
 11
5.0436
 21
-3.306
 31
0.0
  0
LINE
  5
139
330
18
100
AcDbEntity
  8
pad
100
AcDbLine
 10
5.4863
 20
-3.306
 30
0.0
 11
5.6975
 21
-3.306
 31
0.0
  0
LINE
  5
13A
330
18
100
AcDbEntity
  8
pad
100
AcDbLine
 10
2.0775
 20
-3.596
 30
0.0
 11
3.4775
 21
-3.596
 31
0.0
  0
LINE
  5
13B
330
18
100
AcDbEntity
  8
pad
100
AcDbLine
 10
3.4775
 20
-3.596
 30
0.0
 11
3.4775
 21
-3.306
 31
0.0
  0
LINE
  5
13C
330
18
100
AcDbEntity
  8
pad
100
AcDbLine
 10
2.6275
 20
-3.306
 30
0.0
 11
2.6275
 21
-2.993
 31
0.0
  0
LINE
  5
13D
330
18
100
AcDbEntity
  8
pad
100
AcDbLine
 10
2.0775
 20
-2.993
 30
0.0
 11
2.6275
 21
-2.993
 31
0.0
  0
LINE
  5
13E
330
18
100
AcDbEntity
  8
pad
100
AcDbLine
 10
2.6275
 20
-3.306
 30
0.0
 11
3.4775
 21
-3.306
 31
0.0
  0
LINE
  5
13F
330
18
100
AcDbEntity
  8
pad
100
AcDbLine
 10
-2.1225
 20
-4.003
 30
0.0
 11
-2.1224
 21
-4.053
 31
0.0
  0
LINE
  5
140
330
18
100
AcDbEntity
  8
pad
100
AcDbLine
 10
-1.7225
 20
-4.0022
 30
0.0
 11
-1.7224
 21
-4.0522
 31
0.0
  0
LINE
  5
141
330
18
100
AcDbEntity
  8
pad
100
AcDbLine
 10
-2.1225
 20
-4.003
 30
0.0
 11
-1.7224
 21
-4.003
 31
0.0
  0
LINE
  5
142
330
18
100
AcDbEntity
  8
pad
100
AcDbLine
 10
-2.1224
 20
-4.053
 30
0.0
 11
-1.7224
 21
-4.053
 31
0.0
  0
LINE
  5
143
330
18
100
AcDbEntity
  8
pad
100
AcDbLine
 10
1.3775
 20
-4.003
 30
0.0
 11
1.3776
 21
-4.053
 31
0.0
  0
LINE
  5
144
330
18
100
AcDbEntity
  8
pad
100
AcDbLine
 10
1.7775
 20
-4.0022
 30
0.0
 11
1.7776
 21
-4.0522
 31
0.0
  0
LINE
  5
145
330
18
100
AcDbEntity
  8
pad
100
AcDbLine
 10
1.3775
 20
-4.003
 30
0.0
 11
1.7776
 21
-4.003
 31
0.0
  0
LINE
  5
146
330
18
100
AcDbEntity
  8
pad
100
AcDbLine
 10
1.3776
 20
-4.053
 30
0.0
 11
1.7776
 21
-4.053
 31
0.0
  0
LINE
  5
147
330
18
100
AcDbEntity
  8
pad
100
AcDbLine
 10
5.1275
 20
-4.003
 30
0.0
 11
5.1276
 21
-4.053
 31
0.0
  0
LINE
  5
148
330
18
100
AcDbEntity
  8
pad
100
AcDbLine
 10
5.5275
 20
-4.0022
 30
0.0
 11
5.5276
 21
-4.0522
 31
0.0
  0
LINE
  5
149
330
18
100
AcDbEntity
  8
pad
100
AcDbLine
 10
5.1275
 20
-4.003
 30
0.0
 11
5.5276
 21
-4.003
 31
0.0
  0
LINE
  5
14A
330
18
100
AcDbEntity
  8
pad
100
AcDbLine
 10
5.1276
 20
-4.053
 30
0.0
 11
5.5276
 21
-4.053
 31
0.0
  0
LINE
  5
14B
330
18
100
AcDbEntity
  8
pad
100
AcDbLine
 10
-2.1225
 20
0.997
 30
0.0
 11
-2.1224
 21
0.947
 31
0.0
  0
LINE
  5
14C
330
18
100
AcDbEntity
  8
pad
100
AcDbLine
 10
-1.7225
 20
0.9978
 30
0.0
 11
-1.7224
 21
0.9478
 31
0.0
  0
LINE
  5
14D
330
18
100
AcDbEntity
  8
pad
100
AcDbLine
 10
-2.1225
 20
0.997
 30
0.0
 11
-1.7224
 21
0.997
 31
0.0
  0
LINE
  5
14E
330
18
100
AcDbEntity
  8
pad
100
AcDbLine
 10
-2.1224
 20
0.947
 30
0.0
 11
-1.7224
 21
0.947
 31
0.0
  0
LINE
  5
14F
330
18
100
AcDbEntity
  8
pad
100
AcDbLine
 10
5.1275
 20
0.997
 30
0.0
 11
5.1276
 21
0.947
 31
0.0
  0
LINE
  5
150
330
18
100
AcDbEntity
  8
pad
100
AcDbLine
 10
5.5275
 20
0.9978
 30
0.0
 11
5.5276
 21
0.9478
 31
0.0
  0
LINE
  5
151
330
18
100
AcDbEntity
  8
pad
100
AcDbLine
 10
5.1275
 20
0.997
 30
0.0
 11
5.5276
 21
0.997
 31
0.0
  0
LINE
  5
152
330
18
100
AcDbEntity
  8
pad
100
AcDbLine
 10
5.1276
 20
0.947
 30
0.0
 11
5.5276
 21
0.947
 31
0.0
  0
LINE
  5
153
330
18
100
AcDbEntity
  8
pad
100
AcDbLine
 10
9.1275
 20
0.997
 30
0.0
 11
9.1276
 21
0.947
 31
0.0
  0
LINE
  5
154
330
18
100
AcDbEntity
  8
pad
100
AcDbLine
 10
9.5275
 20
0.9978
 30
0.0
 11
9.5276
 21
0.9478
 31
0.0
  0
LINE
  5
155
330
18
100
AcDbEntity
  8
pad
100
AcDbLine
 10
9.1275
 20
0.997
 30
0.0
 11
9.5276
 21
0.997
 31
0.0
  0
LINE
  5
156
330
18
100
AcDbEntity
  8
pad
100
AcDbLine
 10
9.1276
 20
0.947
 30
0.0
 11
9.5276
 21
0.947
 31
0.0
  0
LINE
  5
157
330
18
100
AcDbEntity
  8
pad
100
AcDbLine
 10
12.7275
 20
0.997
 30
0.0
 11
12.7276
 21
0.947
 31
0.0
  0
LINE
  5
158
330
18
100
AcDbEntity
  8
pad
100
AcDbLine
 10
13.1275
 20
0.9978
 30
0.0
 11
13.1276
 21
0.9478
 31
0.0
  0
LINE
  5
159
330
18
100
AcDbEntity
  8
pad
100
AcDbLine
 10
12.7275
 20
0.997
 30
0.0
 11
13.1276
 21
0.997
 31
0.0
  0
LINE
  5
15A
330
18
100
AcDbEntity
  8
pad
100
AcDbLine
 10
12.7276
 20
0.947
 30
0.0
 11
13.1276
 21
0.947
 31
0.0
  0
LINE
  5
15B
330
18
100
AcDbEntity
  8
pad
100
AcDbLine
 10
8.7775
 20
-4.003
 30
0.0
 11
8.7776
 21
-4.053
 31
0.0
  0
LINE
  5
15C
330
18
100
AcDbEntity
  8
pad
100
AcDbLine
 10
9.1775
 20
-4.0022
 30
0.0
 11
9.1776
 21
-4.0522
 31
0.0
  0
LINE
  5
15D
330
18
100
AcDbEntity
  8
pad
100
AcDbLine
 10
8.7775
 20
-4.003
 30
0.0
 11
9.1776
 21
-4.003
 31
0.0
  0
LINE
  5
15E
330
18
100
AcDbEntity
  8
pad
100
AcDbLine
 10
8.7776
 20
-4.053
 30
0.0
 11
9.1776
 21
-4.053
 31
0.0
  0
LINE
  5
15F
330
18
100
AcDbEntity
  8
pad
100
AcDbLine
 10
12.5275
 20
-4.003
 30
0.0
 11
12.5276
 21
-4.053
 31
0.0
  0
LINE
  5
160
330
18
100
AcDbEntity
  8
pad
100
AcDbLine
 10
12.9275
 20
-4.0022
 30
0.0
 11
12.9276
 21
-4.0522
 31
0.0
  0
LINE
  5
161
330
18
100
AcDbEntity
  8
pad
100
AcDbLine
 10
12.5275
 20
-4.003
 30
0.0
 11
12.9276
 21
-4.003
 31
0.0
  0
LINE
  5
162
330
18
100
AcDbEntity
  8
pad
100
AcDbLine
 10
12.5276
 20
-4.053
 30
0.0
 11
12.9276
 21
-4.053
 31
0.0
  0
ARC
  5
163
330
18
100
AcDbEntity
  8
pad
100
AcDbCircle
 10
5.265
 20
-3.24
 30
0.0
 40
0.231
100
AcDbArc
 50
343.3984730000001
 51
196.599467
  0
ARC
  5
164
330
18
100
AcDbEntity
  8
pad
100
AcDbCircle
 10
-1.85
 20
-3.24
 30
0.0
 40
0.231
100
AcDbArc
 50
339.359712
 51
320.660891
  0
ARC
  5
165
330
18
100
AcDbEntity
  8
pad
100
AcDbCircle
 10
-1.100073
 20
-3.239973
 30
0.0
 40
0.231
100
AcDbArc
 50
339.359712
 51
320.660891
  0
ARC
  5
166
330
18
100
AcDbEntity
  8
pad
100
AcDbCircle
 10
0.199927
 20
-3.239973
 30
0.0
 40
0.231
100
AcDbArc
 50
339.359712
 51
320.660891
  0
ARC
  5
167
330
18
100
AcDbEntity
  8
pad
100
AcDbCircle
 10
0.0999274
 20
-2.429973
 30
0.0
 40
0.231
100
AcDbArc
 50
339.359712
 51
320.660891
  0
ARC
  5
168
330
18
100
AcDbEntity
  8
pad
100
AcDbCircle
 10
0.199927
 20
-1.619973
 30
0.0
 40
0.231
100
AcDbArc
 50
339.359712
 51
320.660891
  0
ARC
  5
169
330
18
100
AcDbEntity
  8
pad
100
AcDbCircle
 10
0.199927
 20
-0.809973
 30
0.0
 40
0.231
100
AcDbArc
 50
339.359712
 51
320.660891
  0
ARC
  5
16A
330
18
100
AcDbEntity
  8
pad
100
AcDbCircle
 10
-0.0000725882
 20
0.0000273426
 30
0.0
 40
0.231
100
AcDbArc
 50
339.359712
 51
320.660891
  0
ARC
  5
16B
330
18
100
AcDbEntity
  8
pad
100
AcDbCircle
 10
0.749927
 20
0.0000273426
 30
0.0
 40
0.231
100
AcDbArc
 50
339.359712
 51
320.660891
  0
ARC
  5
16C
330
18
100
AcDbEntity
  8
pad
100
AcDbCircle
 10
1.124927
 20
-0.809973
 30
0.0
 40
0.231
100
AcDbArc
 50
339.359712
 51
320.660891
  0
ARC
  5
16D
330
18
100
AcDbEntity
  8
pad
100
AcDbCircle
 10
1.324927
 20
-1.619973
 30
0.0
 40
0.231
100
AcDbArc
 50
339.359712
 51
320.660891
  0
ARC
  5
16E
330
18
100
AcDbEntity
  8
pad
100
AcDbCircle
 10
0.949927
 20
-2.429973
 30
0.0
 40
0.231
100
AcDbArc
 50
339.359712
 51
320.660891
  0
ARC
  5
16F
330
18
100
AcDbEntity
  8
pad
100
AcDbCircle
 10
11.599927
 20
-3.239973
 30
0.0
 40
0.231
100
AcDbArc
 50
339.359712
 51
320.660891
  0
ARC
  5
170
330
18
100
AcDbEntity
  8
pad
100
AcDbCircle
 10
12.349927
 20
-3.239973
 30
0.0
 40
0.231
100
AcDbArc
 50
339.359712
 51
320.660891
  0
ARC
  5
171
330
18
100
AcDbEntity
  8
pad
100
AcDbCircle
 10
13.099927
 20
-3.239973
 30
0.0
 40
0.231
100
AcDbArc
 50
339.359712
 51
320.660891
  0
ARC
  5
172
330
18
100
AcDbEntity
  8
pad
100
AcDbCircle
 10
13.849927
 20
-3.239973
 30
0.0
 40
0.231
100
AcDbArc
 50
339.359712
 51
320.660891
  0
ARC
  5
173
330
18
100
AcDbEntity
  8
pad
100
AcDbCircle
 10
-1.850073
 20
-2.429973
 30
0.0
 40
0.231
100
AcDbArc
 50
339.359712
 51
320.660891
  0
ARC
  5
174
330
18
100
AcDbEntity
  8
pad
100
AcDbCircle
 10
-1.100145
 20
-2.429945
 30
0.0
 40
0.231
100
AcDbArc
 50
339.359712
 51
320.660891
  0
ARC
  5
175
330
18
100
AcDbEntity
  8
pad
100
AcDbCircle
 10
11.599855
 20
-2.429945
 30
0.0
 40
0.231
100
AcDbArc
 50
339.359712
 51
320.660891
  0
ARC
  5
176
330
18
100
AcDbEntity
  8
pad
100
AcDbCircle
 10
12.349855
 20
-2.429945
 30
0.0
 40
0.231
100
AcDbArc
 50
339.359712
 51
320.660891
  0
ARC
  5
177
330
18
100
AcDbEntity
  8
pad
100
AcDbCircle
 10
13.099855
 20
-2.429945
 30
0.0
 40
0.231
100
AcDbArc
 50
339.359712
 51
320.660891
  0
ARC
  5
178
330
18
100
AcDbEntity
  8
pad
100
AcDbCircle
 10
13.849855
 20
-2.429945
 30
0.0
 40
0.231
100
AcDbArc
 50
339.359712
 51
320.660891
  0
ARC
  5
179
330
18
100
AcDbEntity
  8
pad
100
AcDbCircle
 10
-1.850145
 20
-1.619945
 30
0.0
 40
0.231
100
AcDbArc
 50
339.359712
 51
320.660891
  0
ARC
  5
17A
330
18
100
AcDbEntity
  8
pad
100
AcDbCircle
 10
-1.100218
 20
-1.619918
 30
0.0
 40
0.231
100
AcDbArc
 50
339.359712
 51
320.660891
  0
ARC
  5
17B
330
18
100
AcDbEntity
  8
pad
100
AcDbCircle
 10
11.599782
 20
-1.619918
 30
0.0
 40
0.231
100
AcDbArc
 50
339.359712
 51
320.660891
  0
ARC
  5
17C
330
18
100
AcDbEntity
  8
pad
100
AcDbCircle
 10
12.349782
 20
-1.619918
 30
0.0
 40
0.231
100
AcDbArc
 50
339.359712
 51
320.660891
  0
ARC
  5
17D
330
18
100
AcDbEntity
  8
pad
100
AcDbCircle
 10
13.099782
 20
-1.619918
 30
0.0
 40
0.231
100
AcDbArc
 50
339.359712
 51
320.660891
  0
ARC
  5
17E
330
18
100
AcDbEntity
  8
pad
100
AcDbCircle
 10
13.849782
 20
-1.619918
 30
0.0
 40
0.231
100
AcDbArc
 50
339.359712
 51
320.660891
  0
ARC
  5
17F
330
18
100
AcDbEntity
  8
pad
100
AcDbCircle
 10
-1.850218
 20
-0.809918
 30
0.0
 40
0.231
100
AcDbArc
 50
339.359712
 51
320.660891
  0
ARC
  5
180
330
18
100
AcDbEntity
  8
pad
100
AcDbCircle
 10
-1.10029
 20
-0.809891
 30
0.0
 40
0.231
100
AcDbArc
 50
339.359712
 51
320.660891
  0
ARC
  5
181
330
18
100
AcDbEntity
  8
pad
100
AcDbCircle
 10
11.59971
 20
-0.809891
 30
0.0
 40
0.231
100
AcDbArc
 50
339.359712
 51
320.660891
  0
ARC
  5
182
330
18
100
AcDbEntity
  8
pad
100
AcDbCircle
 10
12.34971
 20
-0.809891
 30
0.0
 40
0.231
100
AcDbArc
 50
339.359712
 51
320.660891
  0
ARC
  5
183
330
18
100
AcDbEntity
  8
pad
100
AcDbCircle
 10
13.09971
 20
-0.809891
 30
0.0
 40
0.231
100
AcDbArc
 50
339.359712
 51
320.660891
  0
ARC
  5
184
330
18
100
AcDbEntity
  8
pad
100
AcDbCircle
 10
13.84971
 20
-0.809891
 30
0.0
 40
0.231
100
AcDbArc
 50
339.359712
 51
320.660891
  0
ARC
  5
185
330
18
100
AcDbEntity
  8
pad
100
AcDbCircle
 10
-1.85029
 20
0.00010937
 30
0.0
 40
0.231
100
AcDbArc
 50
339.359712
 51
320.660891
  0
ARC
  5
186
330
18
100
AcDbEntity
  8
pad
100
AcDbCircle
 10
-1.100363
 20
0.000136713
 30
0.0
 40
0.231
100
AcDbArc
 50
339.359712
 51
320.660891
  0
ARC
  5
187
330
18
100
AcDbEntity
  8
pad
100
AcDbCircle
 10
11.599637
 20
0.000136713
 30
0.0
 40
0.231
100
AcDbArc
 50
339.359712
 51
320.660891
  0
ARC
  5
188
330
18
100
AcDbEntity
  8
pad
100
AcDbCircle
 10
12.349637
 20
0.000136713
 30
0.0
 40
0.231
100
AcDbArc
 50
339.359712
 51
320.660891
  0
ARC
  5
189
330
18
100
AcDbEntity
  8
pad
100
AcDbCircle
 10
13.099637
 20
0.000136713
 30
0.0
 40
0.231
100
AcDbArc
 50
339.359712
 51
320.660891
  0
ARC
  5
18A
330
18
100
AcDbEntity
  8
pad
100
AcDbCircle
 10
13.849637
 20
0.000136713
 30
0.0
 40
0.231
100
AcDbArc
 50
339.359712
 51
320.660891
  0
ARC
  5
18B
330
18
100
AcDbEntity
  8
pad
100
AcDbCircle
 10
1.499927
 20
0.0000273426
 30
0.0
 40
0.231
100
AcDbArc
 50
339.359712
 51
320.660891
  0
ARC
  5
18C
330
18
100
AcDbEntity
  8
pad
100
AcDbCircle
 10
1.874927
 20
-0.809973
 30
0.0
 40
0.231
100
AcDbArc
 50
339.359712
 51
320.660891
  0
ARC
  5
18D
330
18
100
AcDbEntity
  8
pad
100
AcDbCircle
 10
2.074927
 20
-1.619973
 30
0.0
 40
0.231
100
AcDbArc
 50
339.359712
 51
320.660891
  0
ARC
  5
18E
330
18
100
AcDbEntity
  8
pad
100
AcDbCircle
 10
1.699927
 20
-2.429973
 30
0.0
 40
0.231
100
AcDbArc
 50
339.359712
 51
320.660891
  0
ARC
  5
18F
330
18
100
AcDbEntity
  8
pad
100
AcDbCircle
 10
2.249927
 20
0.0000273426
 30
0.0
 40
0.231
100
AcDbArc
 50
339.359712
 51
320.660891
  0
ARC
  5
190
330
18
100
AcDbEntity
  8
pad
100
AcDbCircle
 10
2.624927
 20
-0.809973
 30
0.0
 40
0.231
100
AcDbArc
 50
339.359712
 51
320.660891
  0
ARC
  5
191
330
18
100
AcDbEntity
  8
pad
100
AcDbCircle
 10
2.824927
 20
-1.619973
 30
0.0
 40
0.231
100
AcDbArc
 50
339.359712
 51
320.660891
  0
ARC
  5
192
330
18
100
AcDbEntity
  8
pad
100
AcDbCircle
 10
2.449927
 20
-2.429973
 30
0.0
 40
0.231
100
AcDbArc
 50
339.359712
 51
320.660891
  0
ARC
  5
193
330
18
100
AcDbEntity
  8
pad
100
AcDbCircle
 10
2.999927
 20
0.0000273426
 30
0.0
 40
0.231
100
AcDbArc
 50
339.359712
 51
320.660891
  0
ARC
  5
194
330
18
100
AcDbEntity
  8
pad
100
AcDbCircle
 10
3.374927
 20
-0.809973
 30
0.0
 40
0.231
100
AcDbArc
 50
339.359712
 51
320.660891
  0
ARC
  5
195
330
18
100
AcDbEntity
  8
pad
100
AcDbCircle
 10
3.574927
 20
-1.619973
 30
0.0
 40
0.231
100
AcDbArc
 50
339.359712
 51
320.660891
  0
ARC
  5
196
330
18
100
AcDbEntity
  8
pad
100
AcDbCircle
 10
3.199927
 20
-2.429973
 30
0.0
 40
0.231
100
AcDbArc
 50
339.359712
 51
320.660891
  0
ARC
  5
197
330
18
100
AcDbEntity
  8
pad
100
AcDbCircle
 10
3.749927
 20
0.0000273426
 30
0.0
 40
0.231
100
AcDbArc
 50
339.359712
 51
320.660891
  0
ARC
  5
198
330
18
100
AcDbEntity
  8
pad
100
AcDbCircle
 10
4.124927
 20
-0.809973
 30
0.0
 40
0.231
100
AcDbArc
 50
339.359712
 51
320.660891
  0
ARC
  5
199
330
18
100
AcDbEntity
  8
pad
100
AcDbCircle
 10
4.324927
 20
-1.619973
 30
0.0
 40
0.231
100
AcDbArc
 50
339.359712
 51
320.660891
  0
ARC
  5
19A
330
18
100
AcDbEntity
  8
pad
100
AcDbCircle
 10
3.949927
 20
-2.429973
 30
0.0
 40
0.231
100
AcDbArc
 50
339.359712
 51
320.660891
  0
ARC
  5
19B
330
18
100
AcDbEntity
  8
pad
100
AcDbCircle
 10
4.499927
 20
0.0000273426
 30
0.0
 40
0.231
100
AcDbArc
 50
339.359712
 51
320.660891
  0
ARC
  5
19C
330
18
100
AcDbEntity
  8
pad
100
AcDbCircle
 10
4.874927
 20
-0.809973
 30
0.0
 40
0.231
100
AcDbArc
 50
339.359712
 51
320.660891
  0
ARC
  5
19D
330
18
100
AcDbEntity
  8
pad
100
AcDbCircle
 10
5.074927
 20
-1.619973
 30
0.0
 40
0.231
100
AcDbArc
 50
339.359712
 51
320.660891
  0
ARC
  5
19E
330
18
100
AcDbEntity
  8
pad
100
AcDbCircle
 10
4.699927
 20
-2.429973
 30
0.0
 40
0.231
100
AcDbArc
 50
339.359712
 51
320.660891
  0
ARC
  5
19F
330
18
100
AcDbEntity
  8
pad
100
AcDbCircle
 10
5.249927
 20
0.0000273426
 30
0.0
 40
0.231
100
AcDbArc
 50
339.359712
 51
320.660891
  0
ARC
  5
1A0
330
18
100
AcDbEntity
  8
pad
100
AcDbCircle
 10
5.624927
 20
-0.809973
 30
0.0
 40
0.231
100
AcDbArc
 50
339.359712
 51
320.660891
  0
ARC
  5
1A1
330
18
100
AcDbEntity
  8
pad
100
AcDbCircle
 10
5.824927
 20
-1.619973
 30
0.0
 40
0.231
100
AcDbArc
 50
339.359712
 51
320.660891
  0
ARC
  5
1A2
330
18
100
AcDbEntity
  8
pad
100
AcDbCircle
 10
5.449927
 20
-2.429973
 30
0.0
 40
0.231
100
AcDbArc
 50
339.359712
 51
320.660891
  0
ARC
  5
1A3
330
18
100
AcDbEntity
  8
pad
100
AcDbCircle
 10
5.999927
 20
0.0000273426
 30
0.0
 40
0.231
100
AcDbArc
 50
339.359712
 51
320.660891
  0
ARC
  5
1A4
330
18
100
AcDbEntity
  8
pad
100
AcDbCircle
 10
6.374927
 20
-0.809973
 30
0.0
 40
0.231
100
AcDbArc
 50
339.359712
 51
320.660891
  0
ARC
  5
1A5
330
18
100
AcDbEntity
  8
pad
100
AcDbCircle
 10
6.574927
 20
-1.619973
 30
0.0
 40
0.231
100
AcDbArc
 50
339.359712
 51
320.660891
  0
ARC
  5
1A6
330
18
100
AcDbEntity
  8
pad
100
AcDbCircle
 10
6.199927
 20
-2.429973
 30
0.0
 40
0.231
100
AcDbArc
 50
339.359712
 51
320.660891
  0
ARC
  5
1A7
330
18
100
AcDbEntity
  8
pad
100
AcDbCircle
 10
6.749927
 20
0.0000273426
 30
0.0
 40
0.231
100
AcDbArc
 50
339.359712
 51
320.660891
  0
ARC
  5
1A8
330
18
100
AcDbEntity
  8
pad
100
AcDbCircle
 10
7.124927
 20
-0.809973
 30
0.0
 40
0.231
100
AcDbArc
 50
339.359712
 51
320.660891
  0
ARC
  5
1A9
330
18
100
AcDbEntity
  8
pad
100
AcDbCircle
 10
7.324927
 20
-1.619973
 30
0.0
 40
0.231
100
AcDbArc
 50
339.359712
 51
320.660891
  0
ARC
  5
1AA
330
18
100
AcDbEntity
  8
pad
100
AcDbCircle
 10
6.949927
 20
-2.429973
 30
0.0
 40
0.231
100
AcDbArc
 50
339.359712
 51
320.660891
  0
ARC
  5
1AB
330
18
100
AcDbEntity
  8
pad
100
AcDbCircle
 10
7.499927
 20
0.0000273426
 30
0.0
 40
0.231
100
AcDbArc
 50
339.359712
 51
320.660891
  0
ARC
  5
1AC
330
18
100
AcDbEntity
  8
pad
100
AcDbCircle
 10
7.874927
 20
-0.809973
 30
0.0
 40
0.231
100
AcDbArc
 50
339.359712
 51
320.660891
  0
ARC
  5
1AD
330
18
100
AcDbEntity
  8
pad
100
AcDbCircle
 10
8.074927
 20
-1.619973
 30
0.0
 40
0.231
100
AcDbArc
 50
339.359712
 51
320.660891
  0
ARC
  5
1AE
330
18
100
AcDbEntity
  8
pad
100
AcDbCircle
 10
7.699927
 20
-2.429973
 30
0.0
 40
0.231
100
AcDbArc
 50
339.359712
 51
320.660891
  0
ARC
  5
1AF
330
18
100
AcDbEntity
  8
pad
100
AcDbCircle
 10
8.249927
 20
0.0000273426
 30
0.0
 40
0.231
100
AcDbArc
 50
339.359712
 51
320.660891
  0
ARC
  5
1B0
330
18
100
AcDbEntity
  8
pad
100
AcDbCircle
 10
8.624927
 20
-0.809973
 30
0.0
 40
0.231
100
AcDbArc
 50
339.359712
 51
320.660891
  0
ARC
  5
1B1
330
18
100
AcDbEntity
  8
pad
100
AcDbCircle
 10
8.824927
 20
-1.619973
 30
0.0
 40
0.231
100
AcDbArc
 50
339.359712
 51
320.660891
  0
ARC
  5
1B2
330
18
100
AcDbEntity
  8
pad
100
AcDbCircle
 10
8.449927
 20
-2.429973
 30
0.0
 40
0.231
100
AcDbArc
 50
339.359712
 51
320.660891
  0
ARC
  5
1B3
330
18
100
AcDbEntity
  8
pad
100
AcDbCircle
 10
8.999927
 20
0.0000273426
 30
0.0
 40
0.231
100
AcDbArc
 50
339.359712
 51
320.660891
  0
ARC
  5
1B4
330
18
100
AcDbEntity
  8
pad
100
AcDbCircle
 10
9.374927
 20
-0.809973
 30
0.0
 40
0.231
100
AcDbArc
 50
339.359712
 51
320.660891
  0
ARC
  5
1B5
330
18
100
AcDbEntity
  8
pad
100
AcDbCircle
 10
9.574927
 20
-1.619973
 30
0.0
 40
0.231
100
AcDbArc
 50
339.359712
 51
320.660891
  0
ARC
  5
1B6
330
18
100
AcDbEntity
  8
pad
100
AcDbCircle
 10
9.199927
 20
-2.429973
 30
0.0
 40
0.231
100
AcDbArc
 50
339.359712
 51
320.660891
  0
ARC
  5
1B7
330
18
100
AcDbEntity
  8
pad
100
AcDbCircle
 10
9.749927
 20
0.0000273426
 30
0.0
 40
0.231
100
AcDbArc
 50
339.359712
 51
320.660891
  0
ARC
  5
1B8
330
18
100
AcDbEntity
  8
pad
100
AcDbCircle
 10
10.499927
 20
0.0000273426
 30
0.0
 40
0.231
100
AcDbArc
 50
339.359712
 51
320.660891
  0
ARC
  5
1B9
330
18
100
AcDbEntity
  8
pad
100
AcDbCircle
 10
10.324927
 20
-0.809973
 30
0.0
 40
0.231
100
AcDbArc
 50
339.359712
 51
320.660891
  0
ARC
  5
1BA
330
18
100
AcDbEntity
  8
pad
100
AcDbCircle
 10
10.399927
 20
-1.619973
 30
0.0
 40
0.231
100
AcDbArc
 50
339.359712
 51
320.660891
  0
ARC
  5
1BB
330
18
100
AcDbEntity
  8
pad
100
AcDbCircle
 10
10.149927
 20
-2.429973
 30
0.0
 40
0.231
100
AcDbArc
 50
339.359712
 51
320.660891
  0
ARC
  5
1BC
330
18
100
AcDbEntity
  8
pad
100
AcDbCircle
 10
10.324927
 20
-3.239973
 30
0.0
 40
0.231
100
AcDbArc
 50
339.359712
 51
320.660891
  0
ARC
  5
1BD
330
18
100
AcDbEntity
  8
pad
100
AcDbCircle
 10
8.693773
 20
-3.3793
 30
0.0
 40
0.0375
100
AcDbArc
 50
240.217162
 51
60.08453999999999
  0
LINE
  5
1BE
330
18
100
AcDbEntity
  8
pad
100
AcDbLine
 10
8.631173
 20
-3.3864
 30
0.0
 11
8.675173
 21
-3.4118
 31
0.0
  0
LINE
  5
1BF
330
18
100
AcDbEntity
  8
pad
100
AcDbLine
 10
8.668673
 20
-3.3214
 30
0.0
 11
8.712473
 21
-3.3468
 31
0.0
  0
ARC
  5
1C0
330
18
100
AcDbEntity
  8
pad
100
AcDbCircle
 10
2.0775
 20
-3.239973
 30
0.0
 40
0.231
100
AcDbArc
 50
90.0
 51
270.0
  0
LINE
  5
1C1
330
18
100
AcDbEntity
  8
pad
100
AcDbLine
 10
8.4525
 20
-3.593
 30
0.0
 11
8.4525
 21
-3.470973
 31
0.0
  0
ARC
  5
1C2
330
18
100
AcDbEntity
  8
pad
100
AcDbCircle
 10
8.4525
 20
-3.239973
 30
0.0
 40
0.231
100
AcDbArc
 50
270.0
 51
320.660891
  0
ARC
  5
1C3
330
18
100
AcDbEntity
  8
pad
100
AcDbCircle
 10
8.4525
 20
-3.239973
 30
0.0
 40
0.231
100
AcDbArc
 50
339.359712
 51
90.0
  0
LINE
  5
1C4
330
18
100
AcDbEntity
  8
pad
100
AcDbLine
 10
8.4525
 20
-3.008973
 30
0.0
 11
8.4525
 21
-2.993
 31
0.0
  0
LINE
  5
1C5
330
18
100
AcDbEntity
  8
pad
100
AcDbLine
 10
2.0775
 20
-3.008973
 30
0.0
 11
2.0775
 21
-2.993
 31
0.0
  0
LINE
  5
1C6
330
18
100
AcDbEntity
  8
pad
100
AcDbLine
 10
2.0775
 20
-3.593
 30
0.0
 11
2.0775
 21
-3.470973
 31
0.0
  0
ENDSEC
  0
SECTION
  2
OBJECTS
  0
DICTIONARY
  5
C
330
0
100
AcDbDictionary
281
     1
  3
ACAD_DETAILVIEWSTYLE
350
248
  3
ACAD_GROUP
350
D
  3
ACAD_LAYOUT
350
1EC
  3
ACAD_MATERIAL
350
208
  3
ACAD_MLEADERSTYLE
350
20E
  3
ACAD_MLINESTYLE
350
1B
  3
ACAD_PLOTSETTINGS
350
1C7
  3
ACAD_PLOTSTYLENAME
350
1C8
  3
ACAD_SCALELIST
350
1CA
  3
ACAD_SECTIONVIEWSTYLE
350
249
  3
ACAD_TABLESTYLE
350
20C
  3
ACAD_VISUALSTYLE
350
1EF
  3
ACDB_RECOMPOSE_DATA
350
244
  3
AcDbVariableDictionary
350
210
  0
DICTIONARY
  5
248
102
{ACAD_REACTORS
330
C
102
}
330
C
100
AcDbDictionary
281
     1
  0
DICTIONARY
  5
D
102
{ACAD_REACTORS
330
C
102
}
330
C
100
AcDbDictionary
281
     1
  0
DICTIONARY
  5
1EC
102
{ACAD_REACTORS
330
C
102
}
330
C
100
AcDbDictionary
281
     1
  3
Layout1
350
1EE
  3
Model
350
1ED
  0
DICTIONARY
  5
208
102
{ACAD_REACTORS
330
C
102
}
330
C
100
AcDbDictionary
281
     1
  3
ByBlock
350
20A
  3
ByLayer
350
209
  3
Global
350
20B
  0
DICTIONARY
  5
20E
102
{ACAD_REACTORS
330
C
102
}
330
C
100
AcDbDictionary
281
     1
  3
Standard
350
20F
  0
DICTIONARY
  5
1B
102
{ACAD_REACTORS
330
C
102
}
330
C
100
AcDbDictionary
281
     1
  3
STANDARD
350
1C
  0
DICTIONARY
  5
1C7
102
{ACAD_REACTORS
330
C
102
}
330
C
100
AcDbDictionary
281
     1
  0
ACDBDICTIONARYWDFLT
  5
1C8
102
{ACAD_REACTORS
330
C
102
}
330
C
100
AcDbDictionary
281
     1
  3
Normal
350
1C9
100
AcDbDictionaryWithDefault
340
1C9
  0
DICTIONARY
  5
1CA
102
{ACAD_REACTORS
330
C
102
}
330
C
100
AcDbDictionary
281
     1
  3
A0
350
1CB
  3
A1
350
1CC
  3
A2
350
1CD
  3
A3
350
1CE
  3
A4
350
1CF
  3
A5
350
1D0
  3
A6
350
1D1
  3
A7
350
1D2
  3
A8
350
1D3
  3
A9
350
1D4
  3
B0
350
1D5
  3
B1
350
1D6
  3
B2
350
1D7
  3
B3
350
1D8
  3
B4
350
1D9
  3
B5
350
1DA
  3
B6
350
1DB
  3
B7
350
1DC
  3
B8
350
1DD
  3
B9
350
1DE
  3
C0
350
1DF
  3
C1
350
1E0
  3
C2
350
1E1
  3
C3
350
1E2
  3
C4
350
1E3
  3
C5
350
1E4
  3
C6
350
1E5
  3
C7
350
1E6
  3
C8
350
1E7
  3
C9
350
1E8
  3
D0
350
1E9
  3
D1
350
1EA
  3
D2
350
1EB
  0
DICTIONARY
  5
249
102
{ACAD_REACTORS
330
C
102
}
330
C
100
AcDbDictionary
281
     1
  0
DICTIONARY
  5
20C
102
{ACAD_REACTORS
330
C
102
}
330
C
100
AcDbDictionary
281
     1
  3
Standard
350
20D
  0
DICTIONARY
  5
1EF
102
{ACAD_REACTORS
330
C
102
}
330
C
100
AcDbDictionary
281
     1
  3
2dWireframe
350
1F4
  3
Basic
350
1F7
  3
Brighten
350
1FB
  3
ColorChange
350
1FF
  3
Conceptual
350
1F9
  3
Dim
350
1FA
  3
EdgeColorOff
350
202
  3
Facepattern
350
1FE
  3
Flat
350
1F0
  3
FlatWithEdges
350
1F1
  3
Gouraud
350
1F2
  3
GouraudWithEdges
350
1F3
  3
Hidden
350
1F6
  3
JitterOff
350
200
  3
Linepattern
350
1FD
  3
OverhangOff
350
201
  3
Realistic
350
1F8
  3
Shaded
350
207
  3
Shaded with edges
350
206
  3
Shades of Gray
350
203
  3
Sketchy
350
204
  3
Thicken
350
1FC
  3
Wireframe
350
1F5
  3
X-Ray
350
205
  0
XRECORD
  5
244
102
{ACAD_REACTORS
330
C
102
}
330
C
100
AcDbXrecord
280
     1
 90
        1
330
20D
  0
DICTIONARY
  5
210
102
{ACAD_REACTORS
330
C
102
}
330
C
100
AcDbDictionary
281
     1
  3
CANNOSCALE
350
211
  3
CMLEADERSTYLE
350
246
  3
CTABLESTYLE
350
245
  3
MSLTSCALE
350
247
  0
LAYOUT
  5
1EE
102
{ACAD_REACTORS
330
1EC
102
}
330
1EC
100
AcDbPlotSettings
  1

  2
none_device
  4

  6

 40
0.0
 41
0.0
 42
0.0
 43
0.0
 44
0.0
 45
0.0
 46
0.0
 47
0.0
 48
0.0
 49
0.0
140
0.0
141
0.0
142
1.0
143
1.0
 70
   688
 72
     0
 73
     0
 74
     5
  7

 75
    16
 76
     0
 77
     2
 78
   300
147
1.0
148
0.0
149
0.0
100
AcDbLayout
  1
Layout1
 70
     1
 71
     1
 10
0.0
 20
0.0
 11
12.0
 21
9.0
 12
0.0
 22
0.0
 32
0.0
 14
1.000000000000000E+20
 24
1.000000000000000E+20
 34
1.000000000000000E+20
 15
-1.000000000000000E+20
 25
-1.000000000000000E+20
 35
-1.000000000000000E+20
146
0.0
 13
0.0
 23
0.0
 33
0.0
 16
1.0
 26
0.0
 36
0.0
 17
0.0
 27
1.0
 37
0.0
 76
     0
330
15
  0
LAYOUT
  5
1ED
102
{ACAD_REACTORS
330
1EC
102
}
330
1EC
100
AcDbPlotSettings
  1

  2
none_device
  4
Letter_(8.50_x_11.00_Inches)
  6

 40
6.35
 41
6.35
 42
6.35000508
 43
6.35000508
 44
215.9
 45
279.4
 46
0.0
 47
0.0
 48
0.0
 49
0.0
140
0.0
141
0.0
142
1.0
143
2.187915812494395
 70
  1712
 72
     0
 73
     0
 74
     0
  7

 75
     0
 76
     0
 77
     2
 78
   300
147
0.4570559773321085
148
69.8922409921244
149
186.5601044
100
AcDbLayout
  1
Model
 70
     1
 71
     0
 10
0.0
 20
0.0
 11
14.575
 21
1.1245
 12
0.0
 22
0.0
 32
0.0
 14
-2.575
 24
-4.1555
 34
0.0
 15
14.575
 25
1.1245
 35
0.0
146
0.0
 13
0.0
 23
0.0
 33
0.0
 16
1.0
 26
0.0
 36
0.0
 17
0.0
 27
1.0
 37
0.0
 76
     0
330
18
331
1E
  0
MATERIAL
  5
20A
102
{ACAD_REACTORS
330
208
102
}
330
208
100
AcDbMaterial
  1
ByBlock
 72
     1
 94
      127
  0
MATERIAL
  5
209
102
{ACAD_REACTORS
330
208
102
}
330
208
100
AcDbMaterial
  1
ByLayer
 72
     1
 94
      127
  0
MATERIAL
  5
20B
102
{ACAD_REACTORS
330
208
102
}
330
208
100
AcDbMaterial
  1
Global
 72
     1
 94
      127
  0
MLEADERSTYLE
  5
20F
102
{ACAD_REACTORS
330
20E
102
}
330
20E
100
AcDbMLeaderStyle
179
     2
170
     2
171
     1
172
     0
 90
        2
 40
0.0
 41
0.0
173
     1
 91
-1056964608
340
12
 92
       -2
290
     1
 42
0.09
291
     1
 43
0.36
  3
Standard
341
0
 44
0.18
300

342
F
174
     1
178
     6
175
     1
176
     0
 93
-1056964608
 45
0.18
292
     0
297
     0
 46
0.18
343
0
 94
-1056964608
 47
1.0
 49
1.0
140
1.0
293
     1
141
0.0
294
     1
177
     0
142
1.0
295
     0
296
     0
143
0.125
271
     0
272
     9
273
     9
  0
MLINESTYLE
  5
1C
102
{ACAD_REACTORS
330
1B
102
}
330
1B
100
AcDbMlineStyle
  2
STANDARD
 70
     0
  3

 62
   256
 51
90.0
 52
90.0
 71
     2
 49
0.5
 62
   256
  6
BYLAYER
 49
-0.5
 62
   256
  6
BYLAYER
  0
ACDBPLACEHOLDER
  5
1C9
102
{ACAD_REACTORS
330
1C8
102
}
330
1C8
  0
SCALE
  5
1CB
102
{ACAD_REACTORS
330
1CA
102
}
330
1CA
100
AcDbScale
 70
     0
300
1:1
140
1.0
141
1.0
290
     1
  0
SCALE
  5
1CC
102
{ACAD_REACTORS
330
1CA
102
}
330
1CA
100
AcDbScale
 70
     0
300
1:2
140
1.0
141
2.0
290
     0
  0
SCALE
  5
1CD
102
{ACAD_REACTORS
330
1CA
102
}
330
1CA
100
AcDbScale
 70
     0
300
1:4
140
1.0
141
4.0
290
     0
  0
SCALE
  5
1CE
102
{ACAD_REACTORS
330
1CA
102
}
330
1CA
100
AcDbScale
 70
     0
300
1:5
140
1.0
141
5.0
290
     0
  0
SCALE
  5
1CF
102
{ACAD_REACTORS
330
1CA
102
}
330
1CA
100
AcDbScale
 70
     0
300
1:8
140
1.0
141
8.0
290
     0
  0
SCALE
  5
1D0
102
{ACAD_REACTORS
330
1CA
102
}
330
1CA
100
AcDbScale
 70
     0
300
1:10
140
1.0
141
10.0
290
     0
  0
SCALE
  5
1D1
102
{ACAD_REACTORS
330
1CA
102
}
330
1CA
100
AcDbScale
 70
     0
300
1:16
140
1.0
141
16.0
290
     0
  0
SCALE
  5
1D2
102
{ACAD_REACTORS
330
1CA
102
}
330
1CA
100
AcDbScale
 70
     0
300
1:20
140
1.0
141
20.0
290
     0
  0
SCALE
  5
1D3
102
{ACAD_REACTORS
330
1CA
102
}
330
1CA
100
AcDbScale
 70
     0
300
1:30
140
1.0
141
30.0
290
     0
  0
SCALE
  5
1D4
102
{ACAD_REACTORS
330
1CA
102
}
330
1CA
100
AcDbScale
 70
     0
300
1:40
140
1.0
141
40.0
290
     0
  0
SCALE
  5
1D5
102
{ACAD_REACTORS
330
1CA
102
}
330
1CA
100
AcDbScale
 70
     0
300
1:50
140
1.0
141
50.0
290
     0
  0
SCALE
  5
1D6
102
{ACAD_REACTORS
330
1CA
102
}
330
1CA
100
AcDbScale
 70
     0
300
1:100
140
1.0
141
100.0
290
     0
  0
SCALE
  5
1D7
102
{ACAD_REACTORS
330
1CA
102
}
330
1CA
100
AcDbScale
 70
     0
300
2:1
140
2.0
141
1.0
290
     0
  0
SCALE
  5
1D8
102
{ACAD_REACTORS
330
1CA
102
}
330
1CA
100
AcDbScale
 70
     0
300
4:1
140
4.0
141
1.0
290
     0
  0
SCALE
  5
1D9
102
{ACAD_REACTORS
330
1CA
102
}
330
1CA
100
AcDbScale
 70
     0
300
8:1
140
8.0
141
1.0
290
     0
  0
SCALE
  5
1DA
102
{ACAD_REACTORS
330
1CA
102
}
330
1CA
100
AcDbScale
 70
     0
300
10:1
140
10.0
141
1.0
290
     0
  0
SCALE
  5
1DB
102
{ACAD_REACTORS
330
1CA
102
}
330
1CA
100
AcDbScale
 70
     0
300
100:1
140
100.0
141
1.0
290
     0
  0
SCALE
  5
1DC
102
{ACAD_REACTORS
330
1CA
102
}
330
1CA
100
AcDbScale
 70
     0
300
1/128" = 1'-0"
140
0.0078125
141
12.0
290
     0
  0
SCALE
  5
1DD
102
{ACAD_REACTORS
330
1CA
102
}
330
1CA
100
AcDbScale
 70
     0
300
1/64" = 1'-0"
140
0.015625
141
12.0
290
     0
  0
SCALE
  5
1DE
102
{ACAD_REACTORS
330
1CA
102
}
330
1CA
100
AcDbScale
 70
     0
300
1/32" = 1'-0"
140
0.03125
141
12.0
290
     0
  0
SCALE
  5
1DF
102
{ACAD_REACTORS
330
1CA
102
}
330
1CA
100
AcDbScale
 70
     0
300
1/16" = 1'-0"
140
0.0625
141
12.0
290
     0
  0
SCALE
  5
1E0
102
{ACAD_REACTORS
330
1CA
102
}
330
1CA
100
AcDbScale
 70
     0
300
3/32" = 1'-0"
140
0.09375
141
12.0
290
     0
  0
SCALE
  5
1E1
102
{ACAD_REACTORS
330
1CA
102
}
330
1CA
100
AcDbScale
 70
     0
300
1/8" = 1'-0"
140
0.125
141
12.0
290
     0
  0
SCALE
  5
1E2
102
{ACAD_REACTORS
330
1CA
102
}
330
1CA
100
AcDbScale
 70
     0
300
3/16" = 1'-0"
140
0.1875
141
12.0
290
     0
  0
SCALE
  5
1E3
102
{ACAD_REACTORS
330
1CA
102
}
330
1CA
100
AcDbScale
 70
     0
300
1/4" = 1'-0"
140
0.25
141
12.0
290
     0
  0
SCALE
  5
1E4
102
{ACAD_REACTORS
330
1CA
102
}
330
1CA
100
AcDbScale
 70
     0
300
3/8" = 1'-0"
140
0.375
141
12.0
290
     0
  0
SCALE
  5
1E5
102
{ACAD_REACTORS
330
1CA
102
}
330
1CA
100
AcDbScale
 70
     0
300
1/2" = 1'-0"
140
0.5
141
12.0
290
     0
  0
SCALE
  5
1E6
102
{ACAD_REACTORS
330
1CA
102
}
330
1CA
100
AcDbScale
 70
     0
300
3/4" = 1'-0"
140
0.75
141
12.0
290
     0
  0
SCALE
  5
1E7
102
{ACAD_REACTORS
330
1CA
102
}
330
1CA
100
AcDbScale
 70
     0
300
1" = 1'-0"
140
1.0
141
12.0
290
     0
  0
SCALE
  5
1E8
102
{ACAD_REACTORS
330
1CA
102
}
330
1CA
100
AcDbScale
 70
     0
300
1-1/2" = 1'-0"
140
1.5
141
12.0
290
     0
  0
SCALE
  5
1E9
102
{ACAD_REACTORS
330
1CA
102
}
330
1CA
100
AcDbScale
 70
     0
300
3" = 1'-0"
140
3.0
141
12.0
290
     0
  0
SCALE
  5
1EA
102
{ACAD_REACTORS
330
1CA
102
}
330
1CA
100
AcDbScale
 70
     0
300
6" = 1'-0"
140
6.0
141
12.0
290
     0
  0
SCALE
  5
1EB
102
{ACAD_REACTORS
330
1CA
102
}
330
1CA
100
AcDbScale
 70
     0
300
1'-0" = 1'-0"
140
12.0
141
12.0
290
     0
  0
TABLESTYLE
  5
20D
102
{ACAD_REACTORS
330
20C
102
}
102
{ACAD_XDICTIONARY
360
242
102
}
330
20C
100
AcDbTableStyle
  3
Standard
 70
     0
 71
     0
 40
0.06
 41
0.06
280
     0
281
     0
  7
STANDARD
140
0.18
170
     2
 62
     0
 63
   257
283
     0
 90
        4
 91
        0
  1

274
    -2
284
     1
 64
     0
275
    -2
285
     1
 65
     0
276
    -2
286
     1
 66
     0
277
    -2
287
     1
 67
     0
278
    -2
288
     1
 68
     0
279
    -2
289
     1
 69
     0
  7
STANDARD
140
0.25
170
     5
 62
     0
 63
   257
283
     0
 90
        4
 91
        0
  1

274
    -2
284
     1
 64
     0
275
    -2
285
     1
 65
     0
276
    -2
286
     1
 66
     0
277
    -2
287
     1
 67
     0
278
    -2
288
     1
 68
     0
279
    -2
289
     1
 69
     0
  7
STANDARD
140
0.18
170
     5
 62
     0
 63
   257
283
     0
 90
        4
 91
        0
  1

274
    -2
284
     1
 64
     0
275
    -2
285
     1
 65
     0
276
    -2
286
     1
 66
     0
277
    -2
287
     1
 67
     0
278
    -2
288
     1
 68
     0
279
    -2
289
     1
 69
     0
  0
VISUALSTYLE
  5
1F4
102
{ACAD_REACTORS
330
1EF
102
}
102
{ACAD_XDICTIONARY
360
21A
102
}
330
1EF
100
AcDbVisualStyle
  2
2dWireframe
 70
     4
177
     2
291
     0
 71
     0
176
     1
 72
     2
176
     1
 73
     0
176
     1
 90
        0
176
     1
 40
0.6
176
     1
 41
30.0
176
     1
 62
     5
 63
     7
421
 16777215
176
     1
 74
     1
176
     1
 91
        4
176
     1
 64
     7
176
     1
 65
   257
176
     1
 75
     1
176
     1
175
     1
176
     1
 42
1.0
176
     1
 92
        0
176
     1
 66
   257
176
     1
 43
1.0
176
     1
 76
     1
176
     1
 77
     6
176
     1
 78
     2
176
     1
 67
     7
176
     1
 79
     5
176
     1
170
     0
176
     1
171
     0
176
     1
290
     0
176
     1
 93
        1
176
     1
 44
0.0
176
     1
173
     0
176
     1
  0
VISUALSTYLE
  5
1F7
102
{ACAD_REACTORS
330
1EF
102
}
102
{ACAD_XDICTIONARY
360
220
102
}
330
1EF
100
AcDbVisualStyle
  2
Basic
 70
     7
177
     2
291
     1
 71
     1
176
     1
 72
     0
176
     1
 73
     1
176
     1
 90
        0
176
     1
 40
0.6
176
     1
 41
30.0
176
     1
 62
     5
 63
     7
421
 16777215
176
     1
 74
     0
176
     1
 91
        4
176
     1
 64
     7
176
     1
 65
   257
176
     1
 75
     1
176
     1
175
     1
176
     1
 42
1.0
176
     1
 92
        8
176
     1
 66
     7
176
     1
 43
1.0
176
     1
 76
     1
176
     1
 77
     6
176
     1
 78
     2
176
     1
 67
     7
176
     1
 79
     5
176
     1
170
     0
176
     1
171
     0
176
     1
290
     0
176
     1
 93
        1
176
     1
 44
0.0
176
     1
173
     0
176
     1
  0
VISUALSTYLE
  5
1FB
102
{ACAD_REACTORS
330
1EF
102
}
102
{ACAD_XDICTIONARY
360
228
102
}
330
1EF
100
AcDbVisualStyle
  2
Brighten
 70
    12
177
     2
291
     1
 71
     2
176
     1
 72
     2
176
     1
 73
     0
176
     1
 90
        0
176
     1
 40
0.6
176
     1
 41
30.0
176
     1
 62
     5
 63
     7
421
 16777215
176
     1
 74
     1
176
     1
 91
        4
176
     1
 64
     7
176
     1
 65
   257
176
     1
 75
     1
176
     1
175
     1
176
     1
 42
1.0
176
     1
 92
        8
176
     1
 66
     7
176
     1
 43
1.0
176
     1
 76
     1
176
     1
 77
     6
176
     1
 78
     2
176
     1
 67
     7
176
     1
 79
     5
176
     1
170
     0
176
     1
171
     0
176
     1
290
     0
176
     1
 93
        1
176
     1
 44
50.0
176
     1
173
     0
176
     1
  0
VISUALSTYLE
  5
1FF
102
{ACAD_REACTORS
330
1EF
102
}
102
{ACAD_XDICTIONARY
360
230
102
}
330
1EF
100
AcDbVisualStyle
  2
ColorChange
 70
    16
177
     2
291
     1
 71
     2
176
     1
 72
     2
176
     1
 73
     3
176
     1
 90
        0
176
     1
 40
0.6
176
     1
 41
30.0
176
     1
 62
     5
 63
     8
421
  8421504
176
     1
 74
     1
176
     1
 91
        4
176
     1
 64
     7
176
     1
 65
   257
176
     1
 75
     1
176
     1
175
     1
176
     1
 42
1.0
176
     1
 92
        8
176
     1
 66
     8
424
  8421504
176
     1
 43
1.0
176
     1
 76
     1
176
     1
 77
     6
176
     1
 78
     2
176
     1
 67
     7
176
     1
 79
     5
176
     1
170
     0
176
     1
171
     0
176
     1
290
     0
176
     1
 93
        1
176
     1
 44
0.0
176
     1
173
     0
176
     1
  0
VISUALSTYLE
  5
1F9
102
{ACAD_REACTORS
330
1EF
102
}
102
{ACAD_XDICTIONARY
360
224
102
}
330
1EF
100
AcDbVisualStyle
  2
Conceptual
 70
     9
177
     2
291
     0
 71
     3
176
     1
 72
     2
176
     1
 73
     0
176
     1
 90
        0
176
     1
 40
0.6
176
     1
 41
30.0
176
     1
 62
     5
 63
     7
421
 16777215
176
     1
 74
     2
176
     1
 91
        2
176
     1
 64
     7
176
     1
 65
   257
176
     1
 75
     1
176
     1
175
     1
176
     1
 42
179.0
176
     1
 92
        8
176
     1
 66
     7
176
     1
 43
1.0
176
     1
 76
     1
176
     1
 77
     6
176
     1
 78
     2
176
     1
 67
     7
176
     1
 79
     3
176
     1
170
     0
176
     1
171
     0
176
     1
290
     0
176
     1
 93
        1
176
     1
 44
0.0
176
     1
173
     0
176
     1
  0
VISUALSTYLE
  5
1FA
102
{ACAD_REACTORS
330
1EF
102
}
102
{ACAD_XDICTIONARY
360
226
102
}
330
1EF
100
AcDbVisualStyle
  2
Dim
 70
    11
177
     2
291
     1
 71
     2
176
     1
 72
     2
176
     1
 73
     0
176
     1
 90
        0
176
     1
 40
0.6
176
     1
 41
30.0
176
     1
 62
     5
 63
     7
421
 16777215
176
     1
 74
     1
176
     1
 91
        4
176
     1
 64
     7
176
     1
 65
   257
176
     1
 75
     1
176
     1
175
     1
176
     1
 42
1.0
176
     1
 92
        8
176
     1
 66
     7
176
     1
 43
1.0
176
     1
 76
     1
176
     1
 77
     6
176
     1
 78
     2
176
     1
 67
     7
176
     1
 79
     5
176
     1
170
     0
176
     1
171
     0
176
     1
290
     0
176
     1
 93
        1
176
     1
 44
-50.0
176
     1
173
     0
176
     1
  0
VISUALSTYLE
  5
202
102
{ACAD_REACTORS
330
1EF
102
}
102
{ACAD_XDICTIONARY
360
236
102
}
330
1EF
100
AcDbVisualStyle
  2
EdgeColorOff
 70
    22
177
     2
291
     1
 71
     2
176
     0
 72
     2
176
     0
 73
     0
176
     0
 90
        0
176
     0
 40
0.6
176
     0
 41
30.0
176
     0
 62
     5
 63
     7
421
 16777215
176
     0
 74
     1
176
     0
 91
        4
176
     0
 64
     7
176
     0
 65
   257
176
     0
 75
     1
176
     0
175
     1
176
     0
 42
1.0
176
     0
 92
        8
176
     2
 66
     7
176
     0
 43
1.0
176
     0
 76
     1
176
     0
 77
     6
176
     0
 78
     2
176
     0
 67
     7
176
     0
 79
     5
176
     0
170
     0
176
     0
171
     0
176
     0
290
     0
176
     0
 93
        1
176
     0
 44
0.0
176
     0
173
     0
176
     0
  0
VISUALSTYLE
  5
1FE
102
{ACAD_REACTORS
330
1EF
102
}
102
{ACAD_XDICTIONARY
360
22E
102
}
330
1EF
100
AcDbVisualStyle
  2
Facepattern
 70
    15
177
     2
291
     1
 71
     2
176
     1
 72
     2
176
     1
 73
     0
176
     1
 90
        0
176
     1
 40
0.6
176
     1
 41
30.0
176
     1
 62
     5
 63
     7
421
 16777215
176
     1
 74
     1
176
     1
 91
        4
176
     1
 64
     7
176
     1
 65
   257
176
     1
 75
     1
176
     1
175
     1
176
     1
 42
1.0
176
     1
 92
        8
176
     1
 66
     7
176
     1
 43
1.0
176
     1
 76
     1
176
     1
 77
     6
176
     1
 78
     2
176
     1
 67
     7
176
     1
 79
     5
176
     1
170
     0
176
     1
171
     0
176
     1
290
     0
176
     1
 93
        1
176
     1
 44
0.0
176
     1
173
     0
176
     1
  0
VISUALSTYLE
  5
1F0
102
{ACAD_REACTORS
330
1EF
102
}
102
{ACAD_XDICTIONARY
360
212
102
}
330
1EF
100
AcDbVisualStyle
  2
Flat
 70
     0
177
     2
291
     1
 71
     2
176
     1
 72
     1
176
     1
 73
     1
176
     1
 90
        2
176
     1
 40
0.6
176
     1
 41
30.0
176
     1
 62
     5
 63
     7
421
 16777215
176
     1
 74
     0
176
     1
 91
        0
176
     1
 64
     7
176
     1
 65
   257
176
     1
 75
     1
176
     1
175
     1
176
     1
 42
1.0
176
     1
 92
        8
176
     1
 66
     7
176
     1
 43
1.0
176
     1
 76
     1
176
     1
 77
     6
176
     1
 78
     2
176
     1
 67
     7
176
     1
 79
     5
176
     1
170
     0
176
     1
171
     0
176
     1
290
     0
176
     1
 93
       13
176
     1
 44
0.0
176
     1
173
     0
176
     1
  0
VISUALSTYLE
  5
1F1
102
{ACAD_REACTORS
330
1EF
102
}
102
{ACAD_XDICTIONARY
360
214
102
}
330
1EF
100
AcDbVisualStyle
  2
FlatWithEdges
 70
     1
177
     2
291
     1
 71
     2
176
     1
 72
     1
176
     1
 73
     1
176
     1
 90
        2
176
     1
 40
0.6
176
     1
 41
30.0
176
     1
 62
     5
 63
     7
421
 16777215
176
     1
 74
     1
176
     1
 91
        0
176
     1
 64
     7
176
     1
 65
   257
176
     1
 75
     1
176
     1
175
     1
176
     1
 42
1.0
176
     1
 92
        0
176
     1
 66
   257
176
     1
 43
1.0
176
     1
 76
     1
176
     1
 77
     6
176
     1
 78
     2
176
     1
 67
     7
176
     1
 79
     5
176
     1
170
     0
176
     1
171
     0
176
     1
290
     0
176
     1
 93
       13
176
     1
 44
0.0
176
     1
173
     0
176
     1
  0
VISUALSTYLE
  5
1F2
102
{ACAD_REACTORS
330
1EF
102
}
102
{ACAD_XDICTIONARY
360
216
102
}
330
1EF
100
AcDbVisualStyle
  2
Gouraud
 70
     2
177
     2
291
     1
 71
     2
176
     1
 72
     2
176
     1
 73
     1
176
     1
 90
        2
176
     1
 40
0.6
176
     1
 41
30.0
176
     1
 62
     5
 63
     7
421
 16777215
176
     1
 74
     0
176
     1
 91
        0
176
     1
 64
     7
176
     1
 65
   257
176
     1
 75
     1
176
     1
175
     1
176
     1
 42
1.0
176
     1
 92
        0
176
     1
 66
     7
176
     1
 43
1.0
176
     1
 76
     1
176
     1
 77
     6
176
     1
 78
     2
176
     1
 67
     7
176
     1
 79
     5
176
     1
170
     0
176
     1
171
     0
176
     1
290
     0
176
     1
 93
       13
176
     1
 44
0.0
176
     1
173
     0
176
     1
  0
VISUALSTYLE
  5
1F3
102
{ACAD_REACTORS
330
1EF
102
}
102
{ACAD_XDICTIONARY
360
218
102
}
330
1EF
100
AcDbVisualStyle
  2
GouraudWithEdges
 70
     3
177
     2
291
     1
 71
     2
176
     1
 72
     2
176
     1
 73
     1
176
     1
 90
        2
176
     1
 40
0.6
176
     1
 41
30.0
176
     1
 62
     5
 63
     7
421
 16777215
176
     1
 74
     1
176
     1
 91
        0
176
     1
 64
     7
176
     1
 65
   257
176
     1
 75
     1
176
     1
175
     1
176
     1
 42
1.0
176
     1
 92
        0
176
     1
 66
   257
176
     1
 43
1.0
176
     1
 76
     1
176
     1
 77
     6
176
     1
 78
     2
176
     1
 67
     7
176
     1
 79
     5
176
     1
170
     0
176
     1
171
     0
176
     1
290
     0
176
     1
 93
       13
176
     1
 44
0.0
176
     1
173
     0
176
     1
  0
VISUALSTYLE
  5
1F6
102
{ACAD_REACTORS
330
1EF
102
}
102
{ACAD_XDICTIONARY
360
21E
102
}
330
1EF
100
AcDbVisualStyle
  2
Hidden
 70
     6
177
     2
291
     0
 71
     1
176
     1
 72
     2
176
     1
 73
     2
176
     1
 90
        0
176
     1
 40
0.6
176
     1
 41
30.0
176
     1
 62
     5
 63
     7
421
 16777215
176
     1
 74
     2
176
     1
 91
        2
176
     1
 64
     7
176
     1
 65
   257
176
     1
 75
     2
176
     1
175
     1
176
     1
 42
40.0
176
     1
 92
        0
176
     1
 66
   257
176
     1
 43
1.0
176
     1
 76
     1
176
     1
 77
     6
176
     1
 78
     2
176
     1
 67
     7
176
     1
 79
     3
176
     1
170
     0
176
     1
171
     0
176
     1
290
     0
176
     1
 93
        1
176
     1
 44
0.0
176
     1
173
     0
176
     1
  0
VISUALSTYLE
  5
200
102
{ACAD_REACTORS
330
1EF
102
}
102
{ACAD_XDICTIONARY
360
232
102
}
330
1EF
100
AcDbVisualStyle
  2
JitterOff
 70
    20
177
     2
291
     1
 71
     2
176
     0
 72
     2
176
     0
 73
     0
176
     0
 90
        0
176
     0
 40
0.6
176
     0
 41
30.0
176
     0
 62
     5
 63
     7
421
 16777215
176
     0
 74
     1
176
     0
 91
        4
176
     0
 64
     7
176
     0
 65
   257
176
     0
 75
     1
176
     0
175
     1
176
     0
 42
1.0
176
     0
 92
       10
176
     2
 66
     7
176
     0
 43
1.0
176
     0
 76
     1
176
     0
 77
     6
176
     0
 78
     2
176
     0
 67
     7
176
     0
 79
     5
176
     0
170
     0
176
     0
171
     0
176
     0
290
     0
176
     0
 93
        1
176
     0
 44
0.0
176
     0
173
     0
176
     0
  0
VISUALSTYLE
  5
1FD
102
{ACAD_REACTORS
330
1EF
102
}
102
{ACAD_XDICTIONARY
360
22C
102
}
330
1EF
100
AcDbVisualStyle
  2
Linepattern
 70
    14
177
     2
291
     1
 71
     2
176
     1
 72
     2
176
     1
 73
     0
176
     1
 90
        0
176
     1
 40
0.6
176
     1
 41
30.0
176
     1
 62
     5
 63
     7
421
 16777215
176
     1
 74
     1
176
     1
 91
        4
176
     1
 64
     7
176
     1
 65
   257
176
     1
 75
     7
176
     1
175
     7
176
     1
 42
1.0
176
     1
 92
        8
176
     1
 66
     7
176
     1
 43
1.0
176
     1
 76
     1
176
     1
 77
     6
176
     1
 78
     2
176
     1
 67
     7
176
     1
 79
     5
176
     1
170
     0
176
     1
171
     0
176
     1
290
     0
176
     1
 93
        1
176
     1
 44
0.0
176
     1
173
     0
176
     1
  0
VISUALSTYLE
  5
201
102
{ACAD_REACTORS
330
1EF
102
}
102
{ACAD_XDICTIONARY
360
234
102
}
330
1EF
100
AcDbVisualStyle
  2
OverhangOff
 70
    21
177
     2
291
     1
 71
     2
176
     0
 72
     2
176
     0
 73
     0
176
     0
 90
        0
176
     0
 40
0.6
176
     0
 41
30.0
176
     0
 62
     5
 63
     7
421
 16777215
176
     0
 74
     1
176
     0
 91
        4
176
     0
 64
     7
176
     0
 65
   257
176
     0
 75
     1
176
     0
175
     1
176
     0
 42
1.0
176
     0
 92
        9
176
     2
 66
     7
176
     0
 43
1.0
176
     0
 76
     1
176
     0
 77
     6
176
     0
 78
     2
176
     0
 67
     7
176
     0
 79
     5
176
     0
170
     0
176
     0
171
     0
176
     0
290
     0
176
     0
 93
        1
176
     0
 44
0.0
176
     0
173
     0
176
     0
  0
VISUALSTYLE
  5
1F8
102
{ACAD_REACTORS
330
1EF
102
}
102
{ACAD_XDICTIONARY
360
222
102
}
330
1EF
100
AcDbVisualStyle
  2
Realistic
 70
     8
177
     2
291
     0
 71
     2
176
     1
 72
     3
176
     1
 73
     0
176
     1
 90
        2
176
     1
 40
0.6
176
     1
 41
30.0
176
     1
 62
     5
 63
     7
421
 16777215
176
     1
 74
     0
176
     1
 91
        0
176
     1
 64
     7
176
     1
 65
   257
176
     1
 75
     1
176
     1
175
     1
176
     1
 42
1.0
176
     1
 92
        8
176
     1
 66
   257
176
     1
 43
1.0
176
     1
 76
     1
176
     1
 77
     6
176
     1
 78
     2
176
     1
 67
     7
176
     1
 79
     3
176
     1
170
     0
176
     1
171
     0
176
     1
290
     0
176
     1
 93
       13
176
     1
 44
0.0
176
     1
173
     0
176
     1
  0
VISUALSTYLE
  5
207
102
{ACAD_REACTORS
330
1EF
102
}
102
{ACAD_XDICTIONARY
360
240
102
}
330
1EF
100
AcDbVisualStyle
  2
Shaded
 70
    27
177
     2
291
     0
 71
     2
176
     1
 72
     2
176
     1
 73
     1
176
     1
 90
        2
176
     1
 40
0.6
176
     1
 41
30.0
176
     1
 62
     5
 63
     7
421
 16777215
176
     1
 74
     0
176
     1
 91
        4
176
     1
 64
     7
176
     1
 65
   257
176
     1
 75
     1
176
     1
175
     1
176
     1
 42
1.0
176
     1
 92
        8
176
     1
 66
   257
176
     1
 43
1.0
176
     1
 76
     1
176
     1
 77
     6
176
     1
 78
     2
176
     1
 67
     8
425
  7895160
176
     1
 79
     3
176
     1
170
     0
176
     1
171
     0
176
     1
290
     0
176
     1
 93
        5
176
     1
 44
0.0
176
     1
173
     0
176
     1
  0
VISUALSTYLE
  5
206
102
{ACAD_REACTORS
330
1EF
102
}
102
{ACAD_XDICTIONARY
360
23E
102
}
330
1EF
100
AcDbVisualStyle
  2
Shaded with edges
 70
    26
177
     2
291
     0
 71
     2
176
     1
 72
     2
176
     1
 73
     1
176
     1
 90
        2
176
     1
 40
0.6
176
     1
 41
30.0
176
     1
 62
     5
 63
     7
421
 16777215
176
     1
 74
     1
176
     1
 91
       10
176
     1
 64
     7
176
     1
 65
   257
176
     1
 75
     2
176
     1
175
     1
176
     1
 42
1.0
176
     1
 92
        8
176
     1
 66
   257
176
     1
 43
1.0
176
     1
 76
     1
176
     1
 77
     6
176
     1
 78
     2
176
     1
 67
     7
176
     1
 79
     3
176
     1
170
     0
176
     1
171
     0
176
     1
290
     0
176
     1
 93
        5
176
     1
 44
0.0
176
     1
173
     0
176
     1
  0
VISUALSTYLE
  5
203
102
{ACAD_REACTORS
330
1EF
102
}
102
{ACAD_XDICTIONARY
360
238
102
}
330
1EF
100
AcDbVisualStyle
  2
Shades of Gray
 70
    23
177
     2
291
     0
 71
     2
176
     1
 72
     2
176
     1
 73
     3
176
     1
 90
        0
176
     1
 40
0.6
176
     1
 41
30.0
176
     1
 62
     5
 63
     7
421
 16777215
176
     1
 74
     2
176
     1
 91
        2
176
     1
 64
     7
176
     1
 65
     7
176
     1
 75
     1
176
     1
175
     1
176
     1
 42
40.0
176
     1
 92
        8
176
     1
 66
     7
176
     1
 43
1.0
176
     1
 76
     1
176
     1
 77
     6
176
     1
 78
     2
176
     1
 67
     7
176
     1
 79
     3
176
     1
170
     0
176
     1
171
     0
176
     1
290
     0
176
     1
 93
        1
176
     1
 44
0.0
176
     1
173
     0
176
     1
  0
VISUALSTYLE
  5
204
102
{ACAD_REACTORS
330
1EF
102
}
102
{ACAD_XDICTIONARY
360
23A
102
}
330
1EF
100
AcDbVisualStyle
  2
Sketchy
 70
    24
177
     2
291
     0
 71
     1
176
     1
 72
     2
176
     1
 73
     2
176
     1
 90
        0
176
     1
 40
0.6
176
     1
 41
30.0
176
     1
 62
     5
 63
     7
421
 16777215
176
     1
 74
     2
176
     1
 91
        2
176
     1
 64
     7
176
     1
 65
     7
176
     1
 75
     1
176
     1
175
     1
176
     1
 42
40.0
176
     1
 92
       11
176
     1
 66
     7
176
     1
 43
1.0
176
     1
 76
     1
176
     1
 77
     6
176
     1
 78
     2
176
     1
 67
     7
176
     1
 79
     6
176
     1
170
     0
176
     1
171
     0
176
     1
290
     0
176
     1
 93
        1
176
     1
 44
0.0
176
     1
173
     0
176
     1
  0
VISUALSTYLE
  5
1FC
102
{ACAD_REACTORS
330
1EF
102
}
102
{ACAD_XDICTIONARY
360
22A
102
}
330
1EF
100
AcDbVisualStyle
  2
Thicken
 70
    13
177
     2
291
     1
 71
     2
176
     1
 72
     2
176
     1
 73
     0
176
     1
 90
        0
176
     1
 40
0.6
176
     1
 41
30.0
176
     1
 62
     5
 63
     7
421
 16777215
176
     1
 74
     1
176
     1
 91
        4
176
     1
 64
     7
176
     1
 65
   257
176
     1
 75
     1
176
     1
175
     1
176
     1
 42
1.0
176
     1
 92
       12
176
     1
 66
     7
176
     1
 43
1.0
176
     1
 76
     1
176
     1
 77
     6
176
     1
 78
     2
176
     1
 67
     7
176
     1
 79
     5
176
     1
170
     0
176
     1
171
     0
176
     1
290
     0
176
     1
 93
        1
176
     1
 44
0.0
176
     1
173
     0
176
     1
  0
VISUALSTYLE
  5
1F5
102
{ACAD_REACTORS
330
1EF
102
}
102
{ACAD_XDICTIONARY
360
21C
102
}
330
1EF
100
AcDbVisualStyle
  2
Wireframe
 70
     5
177
     2
291
     0
 71
     0
176
     1
 72
     2
176
     1
 73
     0
176
     1
 90
        0
176
     1
 40
0.6
176
     1
 41
30.0
176
     1
 62
     5
 63
     7
421
 16777215
176
     1
 74
     1
176
     1
 91
        4
176
     1
 64
     7
176
     1
 65
   257
176
     1
 75
     1
176
     1
175
     1
176
     1
 42
1.0
176
     1
 92
        0
176
     1
 66
   257
176
     1
 43
1.0
176
     1
 76
     1
176
     1
 77
     6
176
     1
 78
     2
176
     1
 67
     7
176
     1
 79
     3
176
     1
170
     0
176
     1
171
     0
176
     1
290
     0
176
     1
 93
        1
176
     1
 44
0.0
176
     1
173
     0
176
     1
  0
VISUALSTYLE
  5
205
102
{ACAD_REACTORS
330
1EF
102
}
102
{ACAD_XDICTIONARY
360
23C
102
}
330
1EF
100
AcDbVisualStyle
  2
X-Ray
 70
    25
177
     2
291
     0
 71
     2
176
     1
 72
     2
176
     1
 73
     1
176
     1
 90
        1
176
     1
 40
0.5
176
     1
 41
30.0
176
     1
 62
     5
 63
     7
421
 16777215
176
     1
 74
     1
176
     1
 91
        0
176
     1
 64
     7
176
     1
 65
   257
176
     1
 75
     1
176
     1
175
     1
176
     1
 42
1.0
176
     1
 92
        8
176
     1
 66
     7
176
     1
 43
1.0
176
     1
 76
     1
176
     1
 77
     6
176
     1
 78
     2
176
     1
 67
     7
176
     1
 79
     3
176
     1
170
     0
176
     1
171
     0
176
     1
290
     0
176
     1
 93
       13
176
     1
 44
0.0
176
     1
173
     0
176
     1
  0
DICTIONARYVAR
  5
211
102
{ACAD_REACTORS
330
210
102
}
330
210
100
DictionaryVariables
280
     0
  1
1:1
  0
DICTIONARYVAR
  5
246
102
{ACAD_REACTORS
330
210
102
}
330
210
100
DictionaryVariables
280
     0
  1
Standard
  0
DICTIONARYVAR
  5
245
102
{ACAD_REACTORS
330
210
102
}
330
210
100
DictionaryVariables
280
     0
  1
Standard
  0
DICTIONARYVAR
  5
247
102
{ACAD_REACTORS
330
210
102
}
330
210
100
DictionaryVariables
280
     0
  1
0
  0
DICTIONARY
  5
242
330
20D
100
AcDbDictionary
280
     1
281
     1
  3
ACAD_ROUNDTRIP_2008_TABLESTYLE_CELLSTYLEMAP
360
243
  0
DICTIONARY
  5
21A
330
1F4
100
AcDbDictionary
280
     1
281
     1
  3
ACAD_XREC_ROUNDTRIP
360
21B
  0
DICTIONARY
  5
220
330
1F7
100
AcDbDictionary
280
     1
281
     1
  3
ACAD_XREC_ROUNDTRIP
360
221
  0
DICTIONARY
  5
228
330
1FB
100
AcDbDictionary
280
     1
281
     1
  3
ACAD_XREC_ROUNDTRIP
360
229
  0
DICTIONARY
  5
230
330
1FF
100
AcDbDictionary
280
     1
281
     1
  3
ACAD_XREC_ROUNDTRIP
360
231
  0
DICTIONARY
  5
224
330
1F9
100
AcDbDictionary
280
     1
281
     1
  3
ACAD_XREC_ROUNDTRIP
360
225
  0
DICTIONARY
  5
226
330
1FA
100
AcDbDictionary
280
     1
281
     1
  3
ACAD_XREC_ROUNDTRIP
360
227
  0
DICTIONARY
  5
236
330
202
100
AcDbDictionary
280
     1
281
     1
  3
ACAD_XREC_ROUNDTRIP
360
237
  0
DICTIONARY
  5
22E
330
1FE
100
AcDbDictionary
280
     1
281
     1
  3
ACAD_XREC_ROUNDTRIP
360
22F
  0
DICTIONARY
  5
212
330
1F0
100
AcDbDictionary
280
     1
281
     1
  3
ACAD_XREC_ROUNDTRIP
360
213
  0
DICTIONARY
  5
214
330
1F1
100
AcDbDictionary
280
     1
281
     1
  3
ACAD_XREC_ROUNDTRIP
360
215
  0
DICTIONARY
  5
216
330
1F2
100
AcDbDictionary
280
     1
281
     1
  3
ACAD_XREC_ROUNDTRIP
360
217
  0
DICTIONARY
  5
218
330
1F3
100
AcDbDictionary
280
     1
281
     1
  3
ACAD_XREC_ROUNDTRIP
360
219
  0
DICTIONARY
  5
21E
330
1F6
100
AcDbDictionary
280
     1
281
     1
  3
ACAD_XREC_ROUNDTRIP
360
21F
  0
DICTIONARY
  5
232
330
200
100
AcDbDictionary
280
     1
281
     1
  3
ACAD_XREC_ROUNDTRIP
360
233
  0
DICTIONARY
  5
22C
330
1FD
100
AcDbDictionary
280
     1
281
     1
  3
ACAD_XREC_ROUNDTRIP
360
22D
  0
DICTIONARY
  5
234
330
201
100
AcDbDictionary
280
     1
281
     1
  3
ACAD_XREC_ROUNDTRIP
360
235
  0
DICTIONARY
  5
222
330
1F8
100
AcDbDictionary
280
     1
281
     1
  3
ACAD_XREC_ROUNDTRIP
360
223
  0
DICTIONARY
  5
240
330
207
100
AcDbDictionary
280
     1
281
     1
  3
ACAD_XREC_ROUNDTRIP
360
241
  0
DICTIONARY
  5
23E
330
206
100
AcDbDictionary
280
     1
281
     1
  3
ACAD_XREC_ROUNDTRIP
360
23F
  0
DICTIONARY
  5
238
330
203
100
AcDbDictionary
280
     1
281
     1
  3
ACAD_XREC_ROUNDTRIP
360
239
  0
DICTIONARY
  5
23A
330
204
100
AcDbDictionary
280
     1
281
     1
  3
ACAD_XREC_ROUNDTRIP
360
23B
  0
DICTIONARY
  5
22A
330
1FC
100
AcDbDictionary
280
     1
281
     1
  3
ACAD_XREC_ROUNDTRIP
360
22B
  0
DICTIONARY
  5
21C
330
1F5
100
AcDbDictionary
280
     1
281
     1
  3
ACAD_XREC_ROUNDTRIP
360
21D
  0
DICTIONARY
  5
23C
330
205
100
AcDbDictionary
280
     1
281
     1
  3
ACAD_XREC_ROUNDTRIP
360
23D
  0
CELLSTYLEMAP
  5
243
102
{ACAD_REACTORS
330
242
102
}
330
242
100
AcDbCellStyleMap
 90
        3
300
CELLSTYLE
  1
TABLEFORMAT_BEGIN
 90
        5
170
     1
 91
        0
 92
    32768
 62
   257
 93
        1
300
CONTENTFORMAT
  1
CONTENTFORMAT_BEGIN
 90
        0
 91
        0
 92
        4
 93
        0
300

 40
0.0
140
1.0
 94
        5
 62
     0
340
F
144
0.25
309
CONTENTFORMAT_END
171
     1
301
MARGIN
  1
CELLMARGIN_BEGIN
 40
0.06
 40
0.06
 40
0.06
 40
0.06
 40
0.06
 40
0.06
309
CELLMARGIN_END
 94
        6
 95
        1
302
GRIDFORMAT
  1
GRIDFORMAT_BEGIN
 90
        0
 91
        1
 62
     0
 92
       -2
340
12
 93
        0
 40
0.045
309
GRIDFORMAT_END
 95
        2
302
GRIDFORMAT
  1
GRIDFORMAT_BEGIN
 90
        0
 91
        1
 62
     0
 92
       -2
340
12
 93
        0
 40
0.045
309
GRIDFORMAT_END
 95
        4
302
GRIDFORMAT
  1
GRIDFORMAT_BEGIN
 90
        0
 91
        1
 62
     0
 92
       -2
340
12
 93
        0
 40
0.045
309
GRIDFORMAT_END
 95
        8
302
GRIDFORMAT
  1
GRIDFORMAT_BEGIN
 90
        0
 91
        1
 62
     0
 92
       -2
340
12
 93
        0
 40
0.045
309
GRIDFORMAT_END
 95
       16
302
GRIDFORMAT
  1
GRIDFORMAT_BEGIN
 90
        0
 91
        1
 62
     0
 92
       -2
340
12
 93
        0
 40
0.045
309
GRIDFORMAT_END
 95
       32
302
GRIDFORMAT
  1
GRIDFORMAT_BEGIN
 90
        0
 91
        1
 62
     0
 92
       -2
340
12
 93
        0
 40
0.045
309
GRIDFORMAT_END
309
TABLEFORMAT_END
  1
CELLSTYLE_BEGIN
 90
        1
 91
        1
300
_TITLE
309
CELLSTYLE_END
300
CELLSTYLE
  1
TABLEFORMAT_BEGIN
 90
        5
170
     1
 91
        0
 92
        0
 62
   257
 93
        1
300
CONTENTFORMAT
  1
CONTENTFORMAT_BEGIN
 90
        0
 91
        0
 92
        4
 93
        0
300

 40
0.0
140
1.0
 94
        5
 62
     0
340
F
144
0.18
309
CONTENTFORMAT_END
171
     1
301
MARGIN
  1
CELLMARGIN_BEGIN
 40
0.06
 40
0.06
 40
0.06
 40
0.06
 40
0.06
 40
0.06
309
CELLMARGIN_END
 94
        6
 95
        1
302
GRIDFORMAT
  1
GRIDFORMAT_BEGIN
 90
        0
 91
        1
 62
     0
 92
       -2
340
12
 93
        0
 40
0.045
309
GRIDFORMAT_END
 95
        2
302
GRIDFORMAT
  1
GRIDFORMAT_BEGIN
 90
        0
 91
        1
 62
     0
 92
       -2
340
12
 93
        0
 40
0.045
309
GRIDFORMAT_END
 95
        4
302
GRIDFORMAT
  1
GRIDFORMAT_BEGIN
 90
        0
 91
        1
 62
     0
 92
       -2
340
12
 93
        0
 40
0.045
309
GRIDFORMAT_END
 95
        8
302
GRIDFORMAT
  1
GRIDFORMAT_BEGIN
 90
        0
 91
        1
 62
     0
 92
       -2
340
12
 93
        0
 40
0.045
309
GRIDFORMAT_END
 95
       16
302
GRIDFORMAT
  1
GRIDFORMAT_BEGIN
 90
        0
 91
        1
 62
     0
 92
       -2
340
12
 93
        0
 40
0.045
309
GRIDFORMAT_END
 95
       32
302
GRIDFORMAT
  1
GRIDFORMAT_BEGIN
 90
        0
 91
        1
 62
     0
 92
       -2
340
12
 93
        0
 40
0.045
309
GRIDFORMAT_END
309
TABLEFORMAT_END
  1
CELLSTYLE_BEGIN
 90
        2
 91
        1
300
_HEADER
309
CELLSTYLE_END
300
CELLSTYLE
  1
TABLEFORMAT_BEGIN
 90
        5
170
     1
 91
        0
 92
        0
 62
   257
 93
        1
300
CONTENTFORMAT
  1
CONTENTFORMAT_BEGIN
 90
        0
 91
        0
 92
        4
 93
        0
300

 40
0.0
140
1.0
 94
        2
 62
     0
340
F
144
0.18
309
CONTENTFORMAT_END
171
     1
301
MARGIN
  1
CELLMARGIN_BEGIN
 40
0.06
 40
0.06
 40
0.06
 40
0.06
 40
0.06
 40
0.06
309
CELLMARGIN_END
 94
        6
 95
        1
302
GRIDFORMAT
  1
GRIDFORMAT_BEGIN
 90
        0
 91
        1
 62
     0
 92
       -2
340
12
 93
        0
 40
0.045
309
GRIDFORMAT_END
 95
        2
302
GRIDFORMAT
  1
GRIDFORMAT_BEGIN
 90
        0
 91
        1
 62
     0
 92
       -2
340
12
 93
        0
 40
0.045
309
GRIDFORMAT_END
 95
        4
302
GRIDFORMAT
  1
GRIDFORMAT_BEGIN
 90
        0
 91
        1
 62
     0
 92
       -2
340
12
 93
        0
 40
0.045
309
GRIDFORMAT_END
 95
        8
302
GRIDFORMAT
  1
GRIDFORMAT_BEGIN
 90
        0
 91
        1
 62
     0
 92
       -2
340
12
 93
        0
 40
0.045
309
GRIDFORMAT_END
 95
       16
302
GRIDFORMAT
  1
GRIDFORMAT_BEGIN
 90
        0
 91
        1
 62
     0
 92
       -2
340
12
 93
        0
 40
0.045
309
GRIDFORMAT_END
 95
       32
302
GRIDFORMAT
  1
GRIDFORMAT_BEGIN
 90
        0
 91
        1
 62
     0
 92
       -2
340
12
 93
        0
 40
0.045
309
GRIDFORMAT_END
309
TABLEFORMAT_END
  1
CELLSTYLE_BEGIN
 90
        3
 91
        2
300
_DATA
309
CELLSTYLE_END
  0
XRECORD
  5
21B
102
{ACAD_REACTORS
330
21A
102
}
330
21A
100
AcDbXrecord
280
     1
102
RTVSPost2010Prop28
280
     1
102
RTVSPost2010PropOp28
 70
     1
102
RTVSPost2010Prop29
280
     1
102
RTVSPost2010PropOp29
 70
     1
102
RTVSPost2010Prop30
280
     0
102
RTVSPost2010PropOp30
 70
     1
102
RTVSPost2010Prop31
280
     0
102
RTVSPost2010PropOp31
 70
     1
102
RTVSPost2010Prop32
280
     0
102
RTVSPost2010PropOp32
 70
     1
102
RTVSPost2010Prop33
280
     0
102
RTVSPost2010PropOp33
 70
     1
102
RTVSPost2010Prop34
280
     0
102
RTVSPost2010PropOp34
 70
     1
102
RTVSPost2010Prop35
280
     0
102
RTVSPost2010PropOp35
 70
     1
102
RTVSPost2010Prop36
280
     0
102
RTVSPost2010PropOp36
 70
     1
102
RTVSPost2010Prop37
 90
       50
102
RTVSPost2010PropOp37
 70
     1
102
RTVSPost2010Prop38
140
0.0
102
RTVSPost2010PropOp38
 70
     1
102
RTVSPost2010Prop39
140
1.0
102
RTVSPost2010PropOp39
 70
     1
102
RTVSPost2010Prop40
 90
        0
102
RTVSPost2010PropOp40
 70
     1
102
RTVSPost2010Prop41ColorIndex
 90
       18
102
RTVSPost2010Prop41ColorRGB
 90
        0
102
RTVSPost2010PropOp41
 70
     1
102
RTVSPost2010Prop42
 90
       50
102
RTVSPost2010PropOp42
 70
     1
102
RTVSPost2010Prop43
 90
        3
102
RTVSPost2010PropOp43
 70
     1
102
RTVSPost2010Prop44ColorIndex
 90
        5
102
RTVSPost2010Prop44ColorRGB
 90
      255
102
RTVSPost2010PropOp44
 70
     1
102
RTVSPost2010Prop45
280
     0
102
RTVSPost2010PropOp45
 70
     1
102
RTVSPost2010Prop46
 90
       50
102
RTVSPost2010PropOp46
 70
     1
102
RTVSPost2010Prop47
 90
       50
102
RTVSPost2010PropOp47
 70
     1
102
RTVSPost2010Prop48
 90
       50
102
RTVSPost2010PropOp48
 70
     1
102
RTVSPost2010Prop49
280
     0
102
RTVSPost2010PropOp49
 70
     1
102
RTVSPost2010Prop50
 90
       50
102
RTVSPost2010PropOp50
 70
     1
102
RTVSPost2010Prop51ColorIndex
 90
      256
102
RTVSPost2010Prop51ColorRGB
 90
-16777216
102
RTVSPost2010PropOp51
 70
     0
102
RTVSPost2010Prop52
140
1.0
102
RTVSPost2010PropOp52
 70
     0
102
RTVSPost2010Prop53
 90
        2
102
RTVSPost2010PropOp53
 70
     1
102
RTVSPost2010Prop54
  1
strokes_ogs.tif
102
RTVSPost2010PropOp54
 70
     1
102
RTVSPost2010Prop55
280
     0
102
RTVSPost2010PropOp55
 70
     1
102
RTVSPost2010Prop56
140
1.0
102
RTVSPost2010PropOp56
 70
     1
102
RTVSPost2010Prop57
140
1.0
102
RTVSPost2010PropOp57
 70
     1
  0
XRECORD
  5
221
102
{ACAD_REACTORS
330
220
102
}
330
220
100
AcDbXrecord
280
     1
102
RTVSPost2010Prop28
280
     0
102
RTVSPost2010PropOp28
 70
     1
102
RTVSPost2010Prop29
280
     1
102
RTVSPost2010PropOp29
 70
     1
102
RTVSPost2010Prop30
280
     1
102
RTVSPost2010PropOp30
 70
     1
102
RTVSPost2010Prop31
280
     0
102
RTVSPost2010PropOp31
 70
     1
102
RTVSPost2010Prop32
280
     0
102
RTVSPost2010PropOp32
 70
     1
102
RTVSPost2010Prop33
280
     0
102
RTVSPost2010PropOp33
 70
     1
102
RTVSPost2010Prop34
280
     0
102
RTVSPost2010PropOp34
 70
     1
102
RTVSPost2010Prop35
280
     0
102
RTVSPost2010PropOp35
 70
     1
102
RTVSPost2010Prop36
280
     0
102
RTVSPost2010PropOp36
 70
     1
102
RTVSPost2010Prop37
 90
       50
102
RTVSPost2010PropOp37
 70
     1
102
RTVSPost2010Prop38
140
0.0
102
RTVSPost2010PropOp38
 70
     1
102
RTVSPost2010Prop39
140
1.0
102
RTVSPost2010PropOp39
 70
     1
102
RTVSPost2010Prop40
 90
        0
102
RTVSPost2010PropOp40
 70
     1
102
RTVSPost2010Prop41ColorIndex
 90
       18
102
RTVSPost2010Prop41ColorRGB
 90
        0
102
RTVSPost2010PropOp41
 70
     1
102
RTVSPost2010Prop42
 90
       50
102
RTVSPost2010PropOp42
 70
     1
102
RTVSPost2010Prop43
 90
        3
102
RTVSPost2010PropOp43
 70
     1
102
RTVSPost2010Prop44ColorIndex
 90
        5
102
RTVSPost2010Prop44ColorRGB
 90
      255
102
RTVSPost2010PropOp44
 70
     1
102
RTVSPost2010Prop45
280
     0
102
RTVSPost2010PropOp45
 70
     1
102
RTVSPost2010Prop46
 90
       50
102
RTVSPost2010PropOp46
 70
     1
102
RTVSPost2010Prop47
 90
       50
102
RTVSPost2010PropOp47
 70
     1
102
RTVSPost2010Prop48
 90
       50
102
RTVSPost2010PropOp48
 70
     1
102
RTVSPost2010Prop49
280
     0
102
RTVSPost2010PropOp49
 70
     1
102
RTVSPost2010Prop50
 90
       50
102
RTVSPost2010PropOp50
 70
     1
102
RTVSPost2010Prop51ColorIndex
 90
      256
102
RTVSPost2010Prop51ColorRGB
 90
-16777216
102
RTVSPost2010PropOp51
 70
     0
102
RTVSPost2010Prop52
140
1.0
102
RTVSPost2010PropOp52
 70
     0
102
RTVSPost2010Prop53
 90
        2
102
RTVSPost2010PropOp53
 70
     1
102
RTVSPost2010Prop54
  1
strokes_ogs.tif
102
RTVSPost2010PropOp54
 70
     1
102
RTVSPost2010Prop55
280
     0
102
RTVSPost2010PropOp55
 70
     1
102
RTVSPost2010Prop56
140
1.0
102
RTVSPost2010PropOp56
 70
     1
102
RTVSPost2010Prop57
140
1.0
102
RTVSPost2010PropOp57
 70
     1
  0
XRECORD
  5
229
102
{ACAD_REACTORS
330
228
102
}
330
228
100
AcDbXrecord
280
     1
102
RTVSPost2010Prop28
280
     0
102
RTVSPost2010PropOp28
 70
     1
102
RTVSPost2010Prop29
280
     1
102
RTVSPost2010PropOp29
 70
     1
102
RTVSPost2010Prop30
280
     1
102
RTVSPost2010PropOp30
 70
     1
102
RTVSPost2010Prop31
280
     0
102
RTVSPost2010PropOp31
 70
     1
102
RTVSPost2010Prop32
280
     0
102
RTVSPost2010PropOp32
 70
     1
102
RTVSPost2010Prop33
280
     0
102
RTVSPost2010PropOp33
 70
     1
102
RTVSPost2010Prop34
280
     0
102
RTVSPost2010PropOp34
 70
     1
102
RTVSPost2010Prop35
280
     0
102
RTVSPost2010PropOp35
 70
     1
102
RTVSPost2010Prop36
280
     0
102
RTVSPost2010PropOp36
 70
     1
102
RTVSPost2010Prop37
 90
       50
102
RTVSPost2010PropOp37
 70
     1
102
RTVSPost2010Prop38
140
0.0
102
RTVSPost2010PropOp38
 70
     1
102
RTVSPost2010Prop39
140
1.0
102
RTVSPost2010PropOp39
 70
     1
102
RTVSPost2010Prop40
 90
        0
102
RTVSPost2010PropOp40
 70
     1
102
RTVSPost2010Prop41ColorIndex
 90
       18
102
RTVSPost2010Prop41ColorRGB
 90
        0
102
RTVSPost2010PropOp41
 70
     1
102
RTVSPost2010Prop42
 90
       50
102
RTVSPost2010PropOp42
 70
     1
102
RTVSPost2010Prop43
 90
        3
102
RTVSPost2010PropOp43
 70
     1
102
RTVSPost2010Prop44ColorIndex
 90
        5
102
RTVSPost2010Prop44ColorRGB
 90
      255
102
RTVSPost2010PropOp44
 70
     1
102
RTVSPost2010Prop45
280
     0
102
RTVSPost2010PropOp45
 70
     1
102
RTVSPost2010Prop46
 90
       50
102
RTVSPost2010PropOp46
 70
     1
102
RTVSPost2010Prop47
 90
       50
102
RTVSPost2010PropOp47
 70
     1
102
RTVSPost2010Prop48
 90
       50
102
RTVSPost2010PropOp48
 70
     1
102
RTVSPost2010Prop49
280
     0
102
RTVSPost2010PropOp49
 70
     1
102
RTVSPost2010Prop50
 90
       50
102
RTVSPost2010PropOp50
 70
     1
102
RTVSPost2010Prop51ColorIndex
 90
      256
102
RTVSPost2010Prop51ColorRGB
 90
-16777216
102
RTVSPost2010PropOp51
 70
     0
102
RTVSPost2010Prop52
140
1.0
102
RTVSPost2010PropOp52
 70
     0
102
RTVSPost2010Prop53
 90
        2
102
RTVSPost2010PropOp53
 70
     1
102
RTVSPost2010Prop54
  1
strokes_ogs.tif
102
RTVSPost2010PropOp54
 70
     1
102
RTVSPost2010Prop55
280
     0
102
RTVSPost2010PropOp55
 70
     1
102
RTVSPost2010Prop56
140
1.0
102
RTVSPost2010PropOp56
 70
     1
102
RTVSPost2010Prop57
140
1.0
102
RTVSPost2010PropOp57
 70
     1
  0
XRECORD
  5
231
102
{ACAD_REACTORS
330
230
102
}
330
230
100
AcDbXrecord
280
     1
102
RTVSPost2010Prop28
280
     0
102
RTVSPost2010PropOp28
 70
     1
102
RTVSPost2010Prop29
280
     1
102
RTVSPost2010PropOp29
 70
     1
102
RTVSPost2010Prop30
280
     1
102
RTVSPost2010PropOp30
 70
     1
102
RTVSPost2010Prop31
280
     0
102
RTVSPost2010PropOp31
 70
     1
102
RTVSPost2010Prop32
280
     0
102
RTVSPost2010PropOp32
 70
     1
102
RTVSPost2010Prop33
280
     0
102
RTVSPost2010PropOp33
 70
     1
102
RTVSPost2010Prop34
280
     0
102
RTVSPost2010PropOp34
 70
     1
102
RTVSPost2010Prop35
280
     0
102
RTVSPost2010PropOp35
 70
     1
102
RTVSPost2010Prop36
280
     0
102
RTVSPost2010PropOp36
 70
     1
102
RTVSPost2010Prop37
 90
       50
102
RTVSPost2010PropOp37
 70
     1
102
RTVSPost2010Prop38
140
0.0
102
RTVSPost2010PropOp38
 70
     1
102
RTVSPost2010Prop39
140
1.0
102
RTVSPost2010PropOp39
 70
     1
102
RTVSPost2010Prop40
 90
        0
102
RTVSPost2010PropOp40
 70
     1
102
RTVSPost2010Prop41ColorIndex
 90
       18
102
RTVSPost2010Prop41ColorRGB
 90
        0
102
RTVSPost2010PropOp41
 70
     1
102
RTVSPost2010Prop42
 90
       50
102
RTVSPost2010PropOp42
 70
     1
102
RTVSPost2010Prop43
 90
        3
102
RTVSPost2010PropOp43
 70
     1
102
RTVSPost2010Prop44ColorIndex
 90
        5
102
RTVSPost2010Prop44ColorRGB
 90
      255
102
RTVSPost2010PropOp44
 70
     1
102
RTVSPost2010Prop45
280
     0
102
RTVSPost2010PropOp45
 70
     1
102
RTVSPost2010Prop46
 90
       50
102
RTVSPost2010PropOp46
 70
     1
102
RTVSPost2010Prop47
 90
       50
102
RTVSPost2010PropOp47
 70
     1
102
RTVSPost2010Prop48
 90
       50
102
RTVSPost2010PropOp48
 70
     1
102
RTVSPost2010Prop49
280
     0
102
RTVSPost2010PropOp49
 70
     1
102
RTVSPost2010Prop50
 90
       50
102
RTVSPost2010PropOp50
 70
     1
102
RTVSPost2010Prop51ColorIndex
 90
      256
102
RTVSPost2010Prop51ColorRGB
 90
-16777216
102
RTVSPost2010PropOp51
 70
     0
102
RTVSPost2010Prop52
140
1.0
102
RTVSPost2010PropOp52
 70
     0
102
RTVSPost2010Prop53
 90
        2
102
RTVSPost2010PropOp53
 70
     1
102
RTVSPost2010Prop54
  1
strokes_ogs.tif
102
RTVSPost2010PropOp54
 70
     1
102
RTVSPost2010Prop55
280
     0
102
RTVSPost2010PropOp55
 70
     1
102
RTVSPost2010Prop56
140
1.0
102
RTVSPost2010PropOp56
 70
     1
102
RTVSPost2010Prop57
140
1.0
102
RTVSPost2010PropOp57
 70
     1
  0
XRECORD
  5
225
102
{ACAD_REACTORS
330
224
102
}
330
224
100
AcDbXrecord
280
     1
102
RTVSPost2010Prop28
280
     0
102
RTVSPost2010PropOp28
 70
     1
102
RTVSPost2010Prop29
280
     1
102
RTVSPost2010PropOp29
 70
     1
102
RTVSPost2010Prop30
280
     1
102
RTVSPost2010PropOp30
 70
     1
102
RTVSPost2010Prop31
280
     0
102
RTVSPost2010PropOp31
 70
     1
102
RTVSPost2010Prop32
280
     0
102
RTVSPost2010PropOp32
 70
     1
102
RTVSPost2010Prop33
280
     0
102
RTVSPost2010PropOp33
 70
     1
102
RTVSPost2010Prop34
280
     0
102
RTVSPost2010PropOp34
 70
     1
102
RTVSPost2010Prop35
280
     0
102
RTVSPost2010PropOp35
 70
     1
102
RTVSPost2010Prop36
280
     0
102
RTVSPost2010PropOp36
 70
     1
102
RTVSPost2010Prop37
 90
       50
102
RTVSPost2010PropOp37
 70
     1
102
RTVSPost2010Prop38
140
0.0
102
RTVSPost2010PropOp38
 70
     1
102
RTVSPost2010Prop39
140
1.0
102
RTVSPost2010PropOp39
 70
     1
102
RTVSPost2010Prop40
 90
        0
102
RTVSPost2010PropOp40
 70
     1
102
RTVSPost2010Prop41ColorIndex
 90
       18
102
RTVSPost2010Prop41ColorRGB
 90
        0
102
RTVSPost2010PropOp41
 70
     1
102
RTVSPost2010Prop42
 90
       50
102
RTVSPost2010PropOp42
 70
     1
102
RTVSPost2010Prop43
 90
        3
102
RTVSPost2010PropOp43
 70
     1
102
RTVSPost2010Prop44ColorIndex
 90
        5
102
RTVSPost2010Prop44ColorRGB
 90
      255
102
RTVSPost2010PropOp44
 70
     1
102
RTVSPost2010Prop45
280
     0
102
RTVSPost2010PropOp45
 70
     1
102
RTVSPost2010Prop46
 90
       50
102
RTVSPost2010PropOp46
 70
     1
102
RTVSPost2010Prop47
 90
       50
102
RTVSPost2010PropOp47
 70
     1
102
RTVSPost2010Prop48
 90
       50
102
RTVSPost2010PropOp48
 70
     1
102
RTVSPost2010Prop49
280
     0
102
RTVSPost2010PropOp49
 70
     1
102
RTVSPost2010Prop50
 90
       50
102
RTVSPost2010PropOp50
 70
     1
102
RTVSPost2010Prop51ColorIndex
 90
      256
102
RTVSPost2010Prop51ColorRGB
 90
-16777216
102
RTVSPost2010PropOp51
 70
     0
102
RTVSPost2010Prop52
140
1.0
102
RTVSPost2010PropOp52
 70
     0
102
RTVSPost2010Prop53
 90
        2
102
RTVSPost2010PropOp53
 70
     1
102
RTVSPost2010Prop54
  1
strokes_ogs.tif
102
RTVSPost2010PropOp54
 70
     1
102
RTVSPost2010Prop55
280
     0
102
RTVSPost2010PropOp55
 70
     1
102
RTVSPost2010Prop56
140
1.0
102
RTVSPost2010PropOp56
 70
     1
102
RTVSPost2010Prop57
140
1.0
102
RTVSPost2010PropOp57
 70
     1
  0
XRECORD
  5
227
102
{ACAD_REACTORS
330
226
102
}
330
226
100
AcDbXrecord
280
     1
102
RTVSPost2010Prop28
280
     0
102
RTVSPost2010PropOp28
 70
     1
102
RTVSPost2010Prop29
280
     1
102
RTVSPost2010PropOp29
 70
     1
102
RTVSPost2010Prop30
280
     1
102
RTVSPost2010PropOp30
 70
     1
102
RTVSPost2010Prop31
280
     0
102
RTVSPost2010PropOp31
 70
     1
102
RTVSPost2010Prop32
280
     0
102
RTVSPost2010PropOp32
 70
     1
102
RTVSPost2010Prop33
280
     0
102
RTVSPost2010PropOp33
 70
     1
102
RTVSPost2010Prop34
280
     0
102
RTVSPost2010PropOp34
 70
     1
102
RTVSPost2010Prop35
280
     0
102
RTVSPost2010PropOp35
 70
     1
102
RTVSPost2010Prop36
280
     0
102
RTVSPost2010PropOp36
 70
     1
102
RTVSPost2010Prop37
 90
       50
102
RTVSPost2010PropOp37
 70
     1
102
RTVSPost2010Prop38
140
0.0
102
RTVSPost2010PropOp38
 70
     1
102
RTVSPost2010Prop39
140
1.0
102
RTVSPost2010PropOp39
 70
     1
102
RTVSPost2010Prop40
 90
        0
102
RTVSPost2010PropOp40
 70
     1
102
RTVSPost2010Prop41ColorIndex
 90
       18
102
RTVSPost2010Prop41ColorRGB
 90
        0
102
RTVSPost2010PropOp41
 70
     1
102
RTVSPost2010Prop42
 90
       50
102
RTVSPost2010PropOp42
 70
     1
102
RTVSPost2010Prop43
 90
        3
102
RTVSPost2010PropOp43
 70
     1
102
RTVSPost2010Prop44ColorIndex
 90
        5
102
RTVSPost2010Prop44ColorRGB
 90
      255
102
RTVSPost2010PropOp44
 70
     1
102
RTVSPost2010Prop45
280
     0
102
RTVSPost2010PropOp45
 70
     1
102
RTVSPost2010Prop46
 90
       50
102
RTVSPost2010PropOp46
 70
     1
102
RTVSPost2010Prop47
 90
       50
102
RTVSPost2010PropOp47
 70
     1
102
RTVSPost2010Prop48
 90
       50
102
RTVSPost2010PropOp48
 70
     1
102
RTVSPost2010Prop49
280
     0
102
RTVSPost2010PropOp49
 70
     1
102
RTVSPost2010Prop50
 90
       50
102
RTVSPost2010PropOp50
 70
     1
102
RTVSPost2010Prop51ColorIndex
 90
      256
102
RTVSPost2010Prop51ColorRGB
 90
-16777216
102
RTVSPost2010PropOp51
 70
     0
102
RTVSPost2010Prop52
140
1.0
102
RTVSPost2010PropOp52
 70
     0
102
RTVSPost2010Prop53
 90
        2
102
RTVSPost2010PropOp53
 70
     1
102
RTVSPost2010Prop54
  1
strokes_ogs.tif
102
RTVSPost2010PropOp54
 70
     1
102
RTVSPost2010Prop55
280
     0
102
RTVSPost2010PropOp55
 70
     1
102
RTVSPost2010Prop56
140
1.0
102
RTVSPost2010PropOp56
 70
     1
102
RTVSPost2010Prop57
140
1.0
102
RTVSPost2010PropOp57
 70
     1
  0
XRECORD
  5
237
102
{ACAD_REACTORS
330
236
102
}
330
236
100
AcDbXrecord
280
     1
102
RTVSPost2010Prop28
280
     0
102
RTVSPost2010PropOp28
 70
     0
102
RTVSPost2010Prop29
280
     1
102
RTVSPost2010PropOp29
 70
     0
102
RTVSPost2010Prop30
280
     1
102
RTVSPost2010PropOp30
 70
     0
102
RTVSPost2010Prop31
280
     0
102
RTVSPost2010PropOp31
 70
     0
102
RTVSPost2010Prop32
280
     0
102
RTVSPost2010PropOp32
 70
     0
102
RTVSPost2010Prop33
280
     0
102
RTVSPost2010PropOp33
 70
     0
102
RTVSPost2010Prop34
280
     0
102
RTVSPost2010PropOp34
 70
     0
102
RTVSPost2010Prop35
280
     0
102
RTVSPost2010PropOp35
 70
     0
102
RTVSPost2010Prop36
280
     0
102
RTVSPost2010PropOp36
 70
     0
102
RTVSPost2010Prop37
 90
       50
102
RTVSPost2010PropOp37
 70
     0
102
RTVSPost2010Prop38
140
0.0
102
RTVSPost2010PropOp38
 70
     0
102
RTVSPost2010Prop39
140
1.0
102
RTVSPost2010PropOp39
 70
     0
102
RTVSPost2010Prop40
 90
        0
102
RTVSPost2010PropOp40
 70
     0
102
RTVSPost2010Prop41ColorIndex
 90
       18
102
RTVSPost2010Prop41ColorRGB
 90
        0
102
RTVSPost2010PropOp41
 70
     0
102
RTVSPost2010Prop42
 90
       50
102
RTVSPost2010PropOp42
 70
     0
102
RTVSPost2010Prop43
 90
        3
102
RTVSPost2010PropOp43
 70
     0
102
RTVSPost2010Prop44ColorIndex
 90
        5
102
RTVSPost2010Prop44ColorRGB
 90
      255
102
RTVSPost2010PropOp44
 70
     0
102
RTVSPost2010Prop45
280
     0
102
RTVSPost2010PropOp45
 70
     0
102
RTVSPost2010Prop46
 90
       50
102
RTVSPost2010PropOp46
 70
     0
102
RTVSPost2010Prop47
 90
       50
102
RTVSPost2010PropOp47
 70
     0
102
RTVSPost2010Prop48
 90
       50
102
RTVSPost2010PropOp48
 70
     0
102
RTVSPost2010Prop49
280
     0
102
RTVSPost2010PropOp49
 70
     0
102
RTVSPost2010Prop50
 90
       50
102
RTVSPost2010PropOp50
 70
     0
102
RTVSPost2010Prop51ColorIndex
 90
      256
102
RTVSPost2010Prop51ColorRGB
 90
-16777216
102
RTVSPost2010PropOp51
 70
     0
102
RTVSPost2010Prop52
140
1.0
102
RTVSPost2010PropOp52
 70
     0
102
RTVSPost2010Prop53
 90
        2
102
RTVSPost2010PropOp53
 70
     0
102
RTVSPost2010Prop54
  1
strokes_ogs.tif
102
RTVSPost2010PropOp54
 70
     0
102
RTVSPost2010Prop55
280
     0
102
RTVSPost2010PropOp55
 70
     0
102
RTVSPost2010Prop56
140
1.0
102
RTVSPost2010PropOp56
 70
     0
102
RTVSPost2010Prop57
140
1.0
102
RTVSPost2010PropOp57
 70
     0
  0
XRECORD
  5
22F
102
{ACAD_REACTORS
330
22E
102
}
330
22E
100
AcDbXrecord
280
     1
102
RTVSPost2010Prop28
280
     0
102
RTVSPost2010PropOp28
 70
     1
102
RTVSPost2010Prop29
280
     1
102
RTVSPost2010PropOp29
 70
     1
102
RTVSPost2010Prop30
280
     1
102
RTVSPost2010PropOp30
 70
     1
102
RTVSPost2010Prop31
280
     0
102
RTVSPost2010PropOp31
 70
     1
102
RTVSPost2010Prop32
280
     0
102
RTVSPost2010PropOp32
 70
     1
102
RTVSPost2010Prop33
280
     0
102
RTVSPost2010PropOp33
 70
     1
102
RTVSPost2010Prop34
280
     0
102
RTVSPost2010PropOp34
 70
     1
102
RTVSPost2010Prop35
280
     0
102
RTVSPost2010PropOp35
 70
     1
102
RTVSPost2010Prop36
280
     0
102
RTVSPost2010PropOp36
 70
     1
102
RTVSPost2010Prop37
 90
       50
102
RTVSPost2010PropOp37
 70
     1
102
RTVSPost2010Prop38
140
0.0
102
RTVSPost2010PropOp38
 70
     1
102
RTVSPost2010Prop39
140
1.0
102
RTVSPost2010PropOp39
 70
     1
102
RTVSPost2010Prop40
 90
        0
102
RTVSPost2010PropOp40
 70
     1
102
RTVSPost2010Prop41ColorIndex
 90
       18
102
RTVSPost2010Prop41ColorRGB
 90
        0
102
RTVSPost2010PropOp41
 70
     1
102
RTVSPost2010Prop42
 90
       50
102
RTVSPost2010PropOp42
 70
     1
102
RTVSPost2010Prop43
 90
        3
102
RTVSPost2010PropOp43
 70
     1
102
RTVSPost2010Prop44ColorIndex
 90
        5
102
RTVSPost2010Prop44ColorRGB
 90
      255
102
RTVSPost2010PropOp44
 70
     1
102
RTVSPost2010Prop45
280
     0
102
RTVSPost2010PropOp45
 70
     1
102
RTVSPost2010Prop46
 90
       50
102
RTVSPost2010PropOp46
 70
     1
102
RTVSPost2010Prop47
 90
       50
102
RTVSPost2010PropOp47
 70
     1
102
RTVSPost2010Prop48
 90
       50
102
RTVSPost2010PropOp48
 70
     1
102
RTVSPost2010Prop49
280
     0
102
RTVSPost2010PropOp49
 70
     1
102
RTVSPost2010Prop50
 90
       50
102
RTVSPost2010PropOp50
 70
     1
102
RTVSPost2010Prop51ColorIndex
 90
      256
102
RTVSPost2010Prop51ColorRGB
 90
-16777216
102
RTVSPost2010PropOp51
 70
     0
102
RTVSPost2010Prop52
140
1.0
102
RTVSPost2010PropOp52
 70
     0
102
RTVSPost2010Prop53
 90
        2
102
RTVSPost2010PropOp53
 70
     1
102
RTVSPost2010Prop54
  1
strokes_ogs.tif
102
RTVSPost2010PropOp54
 70
     1
102
RTVSPost2010Prop55
280
     0
102
RTVSPost2010PropOp55
 70
     1
102
RTVSPost2010Prop56
140
1.0
102
RTVSPost2010PropOp56
 70
     1
102
RTVSPost2010Prop57
140
1.0
102
RTVSPost2010PropOp57
 70
     1
  0
XRECORD
  5
213
102
{ACAD_REACTORS
330
212
102
}
330
212
100
AcDbXrecord
280
     1
102
RTVSPost2010Prop28
280
     0
102
RTVSPost2010PropOp28
 70
     1
102
RTVSPost2010Prop29
280
     1
102
RTVSPost2010PropOp29
 70
     1
102
RTVSPost2010Prop30
280
     1
102
RTVSPost2010PropOp30
 70
     1
102
RTVSPost2010Prop31
280
     0
102
RTVSPost2010PropOp31
 70
     1
102
RTVSPost2010Prop32
280
     0
102
RTVSPost2010PropOp32
 70
     1
102
RTVSPost2010Prop33
280
     0
102
RTVSPost2010PropOp33
 70
     1
102
RTVSPost2010Prop34
280
     0
102
RTVSPost2010PropOp34
 70
     1
102
RTVSPost2010Prop35
280
     0
102
RTVSPost2010PropOp35
 70
     1
102
RTVSPost2010Prop36
280
     0
102
RTVSPost2010PropOp36
 70
     1
102
RTVSPost2010Prop37
 90
       50
102
RTVSPost2010PropOp37
 70
     1
102
RTVSPost2010Prop38
140
0.0
102
RTVSPost2010PropOp38
 70
     1
102
RTVSPost2010Prop39
140
1.0
102
RTVSPost2010PropOp39
 70
     1
102
RTVSPost2010Prop40
 90
        0
102
RTVSPost2010PropOp40
 70
     1
102
RTVSPost2010Prop41ColorIndex
 90
       18
102
RTVSPost2010Prop41ColorRGB
 90
        0
102
RTVSPost2010PropOp41
 70
     1
102
RTVSPost2010Prop42
 90
       50
102
RTVSPost2010PropOp42
 70
     1
102
RTVSPost2010Prop43
 90
        3
102
RTVSPost2010PropOp43
 70
     1
102
RTVSPost2010Prop44ColorIndex
 90
        5
102
RTVSPost2010Prop44ColorRGB
 90
      255
102
RTVSPost2010PropOp44
 70
     1
102
RTVSPost2010Prop45
280
     0
102
RTVSPost2010PropOp45
 70
     1
102
RTVSPost2010Prop46
 90
       50
102
RTVSPost2010PropOp46
 70
     1
102
RTVSPost2010Prop47
 90
       50
102
RTVSPost2010PropOp47
 70
     1
102
RTVSPost2010Prop48
 90
       50
102
RTVSPost2010PropOp48
 70
     1
102
RTVSPost2010Prop49
280
     0
102
RTVSPost2010PropOp49
 70
     1
102
RTVSPost2010Prop50
 90
       50
102
RTVSPost2010PropOp50
 70
     1
102
RTVSPost2010Prop51ColorIndex
 90
      256
102
RTVSPost2010Prop51ColorRGB
 90
-16777216
102
RTVSPost2010PropOp51
 70
     0
102
RTVSPost2010Prop52
140
1.0
102
RTVSPost2010PropOp52
 70
     0
102
RTVSPost2010Prop53
 90
        2
102
RTVSPost2010PropOp53
 70
     1
102
RTVSPost2010Prop54
  1
strokes_ogs.tif
102
RTVSPost2010PropOp54
 70
     1
102
RTVSPost2010Prop55
280
     0
102
RTVSPost2010PropOp55
 70
     1
102
RTVSPost2010Prop56
140
1.0
102
RTVSPost2010PropOp56
 70
     1
102
RTVSPost2010Prop57
140
1.0
102
RTVSPost2010PropOp57
 70
     1
  0
XRECORD
  5
215
102
{ACAD_REACTORS
330
214
102
}
330
214
100
AcDbXrecord
280
     1
102
RTVSPost2010Prop28
280
     0
102
RTVSPost2010PropOp28
 70
     1
102
RTVSPost2010Prop29
280
     1
102
RTVSPost2010PropOp29
 70
     1
102
RTVSPost2010Prop30
280
     1
102
RTVSPost2010PropOp30
 70
     1
102
RTVSPost2010Prop31
280
     0
102
RTVSPost2010PropOp31
 70
     1
102
RTVSPost2010Prop32
280
     0
102
RTVSPost2010PropOp32
 70
     1
102
RTVSPost2010Prop33
280
     0
102
RTVSPost2010PropOp33
 70
     1
102
RTVSPost2010Prop34
280
     0
102
RTVSPost2010PropOp34
 70
     1
102
RTVSPost2010Prop35
280
     0
102
RTVSPost2010PropOp35
 70
     1
102
RTVSPost2010Prop36
280
     0
102
RTVSPost2010PropOp36
 70
     1
102
RTVSPost2010Prop37
 90
       50
102
RTVSPost2010PropOp37
 70
     1
102
RTVSPost2010Prop38
140
0.0
102
RTVSPost2010PropOp38
 70
     1
102
RTVSPost2010Prop39
140
1.0
102
RTVSPost2010PropOp39
 70
     1
102
RTVSPost2010Prop40
 90
        0
102
RTVSPost2010PropOp40
 70
     1
102
RTVSPost2010Prop41ColorIndex
 90
       18
102
RTVSPost2010Prop41ColorRGB
 90
        0
102
RTVSPost2010PropOp41
 70
     1
102
RTVSPost2010Prop42
 90
       50
102
RTVSPost2010PropOp42
 70
     1
102
RTVSPost2010Prop43
 90
        3
102
RTVSPost2010PropOp43
 70
     1
102
RTVSPost2010Prop44ColorIndex
 90
        5
102
RTVSPost2010Prop44ColorRGB
 90
      255
102
RTVSPost2010PropOp44
 70
     1
102
RTVSPost2010Prop45
280
     0
102
RTVSPost2010PropOp45
 70
     1
102
RTVSPost2010Prop46
 90
       50
102
RTVSPost2010PropOp46
 70
     1
102
RTVSPost2010Prop47
 90
       50
102
RTVSPost2010PropOp47
 70
     1
102
RTVSPost2010Prop48
 90
       50
102
RTVSPost2010PropOp48
 70
     1
102
RTVSPost2010Prop49
280
     0
102
RTVSPost2010PropOp49
 70
     1
102
RTVSPost2010Prop50
 90
       50
102
RTVSPost2010PropOp50
 70
     1
102
RTVSPost2010Prop51ColorIndex
 90
      256
102
RTVSPost2010Prop51ColorRGB
 90
-16777216
102
RTVSPost2010PropOp51
 70
     0
102
RTVSPost2010Prop52
140
1.0
102
RTVSPost2010PropOp52
 70
     0
102
RTVSPost2010Prop53
 90
        2
102
RTVSPost2010PropOp53
 70
     1
102
RTVSPost2010Prop54
  1
strokes_ogs.tif
102
RTVSPost2010PropOp54
 70
     1
102
RTVSPost2010Prop55
280
     0
102
RTVSPost2010PropOp55
 70
     1
102
RTVSPost2010Prop56
140
1.0
102
RTVSPost2010PropOp56
 70
     1
102
RTVSPost2010Prop57
140
1.0
102
RTVSPost2010PropOp57
 70
     1
  0
XRECORD
  5
217
102
{ACAD_REACTORS
330
216
102
}
330
216
100
AcDbXrecord
280
     1
102
RTVSPost2010Prop28
280
     0
102
RTVSPost2010PropOp28
 70
     1
102
RTVSPost2010Prop29
280
     1
102
RTVSPost2010PropOp29
 70
     1
102
RTVSPost2010Prop30
280
     1
102
RTVSPost2010PropOp30
 70
     1
102
RTVSPost2010Prop31
280
     0
102
RTVSPost2010PropOp31
 70
     1
102
RTVSPost2010Prop32
280
     0
102
RTVSPost2010PropOp32
 70
     1
102
RTVSPost2010Prop33
280
     0
102
RTVSPost2010PropOp33
 70
     1
102
RTVSPost2010Prop34
280
     0
102
RTVSPost2010PropOp34
 70
     1
102
RTVSPost2010Prop35
280
     0
102
RTVSPost2010PropOp35
 70
     1
102
RTVSPost2010Prop36
280
     0
102
RTVSPost2010PropOp36
 70
     1
102
RTVSPost2010Prop37
 90
       50
102
RTVSPost2010PropOp37
 70
     1
102
RTVSPost2010Prop38
140
0.0
102
RTVSPost2010PropOp38
 70
     1
102
RTVSPost2010Prop39
140
1.0
102
RTVSPost2010PropOp39
 70
     1
102
RTVSPost2010Prop40
 90
        0
102
RTVSPost2010PropOp40
 70
     1
102
RTVSPost2010Prop41ColorIndex
 90
       18
102
RTVSPost2010Prop41ColorRGB
 90
        0
102
RTVSPost2010PropOp41
 70
     1
102
RTVSPost2010Prop42
 90
       50
102
RTVSPost2010PropOp42
 70
     1
102
RTVSPost2010Prop43
 90
        3
102
RTVSPost2010PropOp43
 70
     1
102
RTVSPost2010Prop44ColorIndex
 90
        5
102
RTVSPost2010Prop44ColorRGB
 90
      255
102
RTVSPost2010PropOp44
 70
     1
102
RTVSPost2010Prop45
280
     0
102
RTVSPost2010PropOp45
 70
     1
102
RTVSPost2010Prop46
 90
       50
102
RTVSPost2010PropOp46
 70
     1
102
RTVSPost2010Prop47
 90
       50
102
RTVSPost2010PropOp47
 70
     1
102
RTVSPost2010Prop48
 90
       50
102
RTVSPost2010PropOp48
 70
     1
102
RTVSPost2010Prop49
280
     0
102
RTVSPost2010PropOp49
 70
     1
102
RTVSPost2010Prop50
 90
       50
102
RTVSPost2010PropOp50
 70
     1
102
RTVSPost2010Prop51ColorIndex
 90
      256
102
RTVSPost2010Prop51ColorRGB
 90
-16777216
102
RTVSPost2010PropOp51
 70
     0
102
RTVSPost2010Prop52
140
1.0
102
RTVSPost2010PropOp52
 70
     0
102
RTVSPost2010Prop53
 90
        2
102
RTVSPost2010PropOp53
 70
     1
102
RTVSPost2010Prop54
  1
strokes_ogs.tif
102
RTVSPost2010PropOp54
 70
     1
102
RTVSPost2010Prop55
280
     0
102
RTVSPost2010PropOp55
 70
     1
102
RTVSPost2010Prop56
140
1.0
102
RTVSPost2010PropOp56
 70
     1
102
RTVSPost2010Prop57
140
1.0
102
RTVSPost2010PropOp57
 70
     1
  0
XRECORD
  5
219
102
{ACAD_REACTORS
330
218
102
}
330
218
100
AcDbXrecord
280
     1
102
RTVSPost2010Prop28
280
     0
102
RTVSPost2010PropOp28
 70
     1
102
RTVSPost2010Prop29
280
     1
102
RTVSPost2010PropOp29
 70
     1
102
RTVSPost2010Prop30
280
     1
102
RTVSPost2010PropOp30
 70
     1
102
RTVSPost2010Prop31
280
     0
102
RTVSPost2010PropOp31
 70
     1
102
RTVSPost2010Prop32
280
     0
102
RTVSPost2010PropOp32
 70
     1
102
RTVSPost2010Prop33
280
     0
102
RTVSPost2010PropOp33
 70
     1
102
RTVSPost2010Prop34
280
     0
102
RTVSPost2010PropOp34
 70
     1
102
RTVSPost2010Prop35
280
     0
102
RTVSPost2010PropOp35
 70
     1
102
RTVSPost2010Prop36
280
     0
102
RTVSPost2010PropOp36
 70
     1
102
RTVSPost2010Prop37
 90
       50
102
RTVSPost2010PropOp37
 70
     1
102
RTVSPost2010Prop38
140
0.0
102
RTVSPost2010PropOp38
 70
     1
102
RTVSPost2010Prop39
140
1.0
102
RTVSPost2010PropOp39
 70
     1
102
RTVSPost2010Prop40
 90
        0
102
RTVSPost2010PropOp40
 70
     1
102
RTVSPost2010Prop41ColorIndex
 90
       18
102
RTVSPost2010Prop41ColorRGB
 90
        0
102
RTVSPost2010PropOp41
 70
     1
102
RTVSPost2010Prop42
 90
       50
102
RTVSPost2010PropOp42
 70
     1
102
RTVSPost2010Prop43
 90
        3
102
RTVSPost2010PropOp43
 70
     1
102
RTVSPost2010Prop44ColorIndex
 90
        5
102
RTVSPost2010Prop44ColorRGB
 90
      255
102
RTVSPost2010PropOp44
 70
     1
102
RTVSPost2010Prop45
280
     0
102
RTVSPost2010PropOp45
 70
     1
102
RTVSPost2010Prop46
 90
       50
102
RTVSPost2010PropOp46
 70
     1
102
RTVSPost2010Prop47
 90
       50
102
RTVSPost2010PropOp47
 70
     1
102
RTVSPost2010Prop48
 90
       50
102
RTVSPost2010PropOp48
 70
     1
102
RTVSPost2010Prop49
280
     0
102
RTVSPost2010PropOp49
 70
     1
102
RTVSPost2010Prop50
 90
       50
102
RTVSPost2010PropOp50
 70
     1
102
RTVSPost2010Prop51ColorIndex
 90
      256
102
RTVSPost2010Prop51ColorRGB
 90
-16777216
102
RTVSPost2010PropOp51
 70
     0
102
RTVSPost2010Prop52
140
1.0
102
RTVSPost2010PropOp52
 70
     0
102
RTVSPost2010Prop53
 90
        2
102
RTVSPost2010PropOp53
 70
     1
102
RTVSPost2010Prop54
  1
strokes_ogs.tif
102
RTVSPost2010PropOp54
 70
     1
102
RTVSPost2010Prop55
280
     0
102
RTVSPost2010PropOp55
 70
     1
102
RTVSPost2010Prop56
140
1.0
102
RTVSPost2010PropOp56
 70
     1
102
RTVSPost2010Prop57
140
1.0
102
RTVSPost2010PropOp57
 70
     1
  0
XRECORD
  5
21F
102
{ACAD_REACTORS
330
21E
102
}
330
21E
100
AcDbXrecord
280
     1
102
RTVSPost2010Prop28
280
     0
102
RTVSPost2010PropOp28
 70
     1
102
RTVSPost2010Prop29
280
     1
102
RTVSPost2010PropOp29
 70
     1
102
RTVSPost2010Prop30
280
     1
102
RTVSPost2010PropOp30
 70
     1
102
RTVSPost2010Prop31
280
     0
102
RTVSPost2010PropOp31
 70
     1
102
RTVSPost2010Prop32
280
     0
102
RTVSPost2010PropOp32
 70
     1
102
RTVSPost2010Prop33
280
     0
102
RTVSPost2010PropOp33
 70
     1
102
RTVSPost2010Prop34
280
     0
102
RTVSPost2010PropOp34
 70
     1
102
RTVSPost2010Prop35
280
     0
102
RTVSPost2010PropOp35
 70
     1
102
RTVSPost2010Prop36
280
     0
102
RTVSPost2010PropOp36
 70
     1
102
RTVSPost2010Prop37
 90
       50
102
RTVSPost2010PropOp37
 70
     1
102
RTVSPost2010Prop38
140
0.0
102
RTVSPost2010PropOp38
 70
     1
102
RTVSPost2010Prop39
140
1.0
102
RTVSPost2010PropOp39
 70
     1
102
RTVSPost2010Prop40
 90
        0
102
RTVSPost2010PropOp40
 70
     1
102
RTVSPost2010Prop41ColorIndex
 90
       18
102
RTVSPost2010Prop41ColorRGB
 90
        0
102
RTVSPost2010PropOp41
 70
     1
102
RTVSPost2010Prop42
 90
       50
102
RTVSPost2010PropOp42
 70
     1
102
RTVSPost2010Prop43
 90
        3
102
RTVSPost2010PropOp43
 70
     1
102
RTVSPost2010Prop44ColorIndex
 90
        5
102
RTVSPost2010Prop44ColorRGB
 90
      255
102
RTVSPost2010PropOp44
 70
     1
102
RTVSPost2010Prop45
280
     0
102
RTVSPost2010PropOp45
 70
     1
102
RTVSPost2010Prop46
 90
       50
102
RTVSPost2010PropOp46
 70
     1
102
RTVSPost2010Prop47
 90
       50
102
RTVSPost2010PropOp47
 70
     1
102
RTVSPost2010Prop48
 90
       50
102
RTVSPost2010PropOp48
 70
     1
102
RTVSPost2010Prop49
280
     0
102
RTVSPost2010PropOp49
 70
     1
102
RTVSPost2010Prop50
 90
       50
102
RTVSPost2010PropOp50
 70
     1
102
RTVSPost2010Prop51ColorIndex
 90
      256
102
RTVSPost2010Prop51ColorRGB
 90
-16777216
102
RTVSPost2010PropOp51
 70
     0
102
RTVSPost2010Prop52
140
1.0
102
RTVSPost2010PropOp52
 70
     0
102
RTVSPost2010Prop53
 90
        2
102
RTVSPost2010PropOp53
 70
     1
102
RTVSPost2010Prop54
  1
strokes_ogs.tif
102
RTVSPost2010PropOp54
 70
     1
102
RTVSPost2010Prop55
280
     0
102
RTVSPost2010PropOp55
 70
     1
102
RTVSPost2010Prop56
140
1.0
102
RTVSPost2010PropOp56
 70
     1
102
RTVSPost2010Prop57
140
1.0
102
RTVSPost2010PropOp57
 70
     1
  0
XRECORD
  5
233
102
{ACAD_REACTORS
330
232
102
}
330
232
100
AcDbXrecord
280
     1
102
RTVSPost2010Prop28
280
     0
102
RTVSPost2010PropOp28
 70
     0
102
RTVSPost2010Prop29
280
     1
102
RTVSPost2010PropOp29
 70
     0
102
RTVSPost2010Prop30
280
     1
102
RTVSPost2010PropOp30
 70
     0
102
RTVSPost2010Prop31
280
     0
102
RTVSPost2010PropOp31
 70
     0
102
RTVSPost2010Prop32
280
     0
102
RTVSPost2010PropOp32
 70
     0
102
RTVSPost2010Prop33
280
     0
102
RTVSPost2010PropOp33
 70
     0
102
RTVSPost2010Prop34
280
     0
102
RTVSPost2010PropOp34
 70
     0
102
RTVSPost2010Prop35
280
     0
102
RTVSPost2010PropOp35
 70
     0
102
RTVSPost2010Prop36
280
     0
102
RTVSPost2010PropOp36
 70
     0
102
RTVSPost2010Prop37
 90
       50
102
RTVSPost2010PropOp37
 70
     0
102
RTVSPost2010Prop38
140
0.0
102
RTVSPost2010PropOp38
 70
     0
102
RTVSPost2010Prop39
140
1.0
102
RTVSPost2010PropOp39
 70
     0
102
RTVSPost2010Prop40
 90
        0
102
RTVSPost2010PropOp40
 70
     0
102
RTVSPost2010Prop41ColorIndex
 90
       18
102
RTVSPost2010Prop41ColorRGB
 90
        0
102
RTVSPost2010PropOp41
 70
     0
102
RTVSPost2010Prop42
 90
       50
102
RTVSPost2010PropOp42
 70
     0
102
RTVSPost2010Prop43
 90
        3
102
RTVSPost2010PropOp43
 70
     0
102
RTVSPost2010Prop44ColorIndex
 90
        5
102
RTVSPost2010Prop44ColorRGB
 90
      255
102
RTVSPost2010PropOp44
 70
     0
102
RTVSPost2010Prop45
280
     0
102
RTVSPost2010PropOp45
 70
     0
102
RTVSPost2010Prop46
 90
       50
102
RTVSPost2010PropOp46
 70
     0
102
RTVSPost2010Prop47
 90
       50
102
RTVSPost2010PropOp47
 70
     0
102
RTVSPost2010Prop48
 90
       50
102
RTVSPost2010PropOp48
 70
     0
102
RTVSPost2010Prop49
280
     0
102
RTVSPost2010PropOp49
 70
     0
102
RTVSPost2010Prop50
 90
       50
102
RTVSPost2010PropOp50
 70
     0
102
RTVSPost2010Prop51ColorIndex
 90
      256
102
RTVSPost2010Prop51ColorRGB
 90
-16777216
102
RTVSPost2010PropOp51
 70
     0
102
RTVSPost2010Prop52
140
1.0
102
RTVSPost2010PropOp52
 70
     0
102
RTVSPost2010Prop53
 90
        2
102
RTVSPost2010PropOp53
 70
     0
102
RTVSPost2010Prop54
  1
strokes_ogs.tif
102
RTVSPost2010PropOp54
 70
     0
102
RTVSPost2010Prop55
280
     0
102
RTVSPost2010PropOp55
 70
     0
102
RTVSPost2010Prop56
140
1.0
102
RTVSPost2010PropOp56
 70
     0
102
RTVSPost2010Prop57
140
1.0
102
RTVSPost2010PropOp57
 70
     0
  0
XRECORD
  5
22D
102
{ACAD_REACTORS
330
22C
102
}
330
22C
100
AcDbXrecord
280
     1
102
RTVSPost2010Prop28
280
     0
102
RTVSPost2010PropOp28
 70
     1
102
RTVSPost2010Prop29
280
     1
102
RTVSPost2010PropOp29
 70
     1
102
RTVSPost2010Prop30
280
     1
102
RTVSPost2010PropOp30
 70
     1
102
RTVSPost2010Prop31
280
     0
102
RTVSPost2010PropOp31
 70
     1
102
RTVSPost2010Prop32
280
     0
102
RTVSPost2010PropOp32
 70
     1
102
RTVSPost2010Prop33
280
     0
102
RTVSPost2010PropOp33
 70
     1
102
RTVSPost2010Prop34
280
     0
102
RTVSPost2010PropOp34
 70
     1
102
RTVSPost2010Prop35
280
     0
102
RTVSPost2010PropOp35
 70
     1
102
RTVSPost2010Prop36
280
     0
102
RTVSPost2010PropOp36
 70
     1
102
RTVSPost2010Prop37
 90
       50
102
RTVSPost2010PropOp37
 70
     1
102
RTVSPost2010Prop38
140
0.0
102
RTVSPost2010PropOp38
 70
     1
102
RTVSPost2010Prop39
140
1.0
102
RTVSPost2010PropOp39
 70
     1
102
RTVSPost2010Prop40
 90
        0
102
RTVSPost2010PropOp40
 70
     1
102
RTVSPost2010Prop41ColorIndex
 90
       18
102
RTVSPost2010Prop41ColorRGB
 90
        0
102
RTVSPost2010PropOp41
 70
     1
102
RTVSPost2010Prop42
 90
       50
102
RTVSPost2010PropOp42
 70
     1
102
RTVSPost2010Prop43
 90
        3
102
RTVSPost2010PropOp43
 70
     1
102
RTVSPost2010Prop44ColorIndex
 90
        5
102
RTVSPost2010Prop44ColorRGB
 90
      255
102
RTVSPost2010PropOp44
 70
     1
102
RTVSPost2010Prop45
280
     0
102
RTVSPost2010PropOp45
 70
     1
102
RTVSPost2010Prop46
 90
       50
102
RTVSPost2010PropOp46
 70
     1
102
RTVSPost2010Prop47
 90
       50
102
RTVSPost2010PropOp47
 70
     1
102
RTVSPost2010Prop48
 90
       50
102
RTVSPost2010PropOp48
 70
     1
102
RTVSPost2010Prop49
280
     0
102
RTVSPost2010PropOp49
 70
     1
102
RTVSPost2010Prop50
 90
       50
102
RTVSPost2010PropOp50
 70
     1
102
RTVSPost2010Prop51ColorIndex
 90
      256
102
RTVSPost2010Prop51ColorRGB
 90
-16777216
102
RTVSPost2010PropOp51
 70
     0
102
RTVSPost2010Prop52
140
1.0
102
RTVSPost2010PropOp52
 70
     0
102
RTVSPost2010Prop53
 90
        2
102
RTVSPost2010PropOp53
 70
     1
102
RTVSPost2010Prop54
  1
strokes_ogs.tif
102
RTVSPost2010PropOp54
 70
     1
102
RTVSPost2010Prop55
280
     0
102
RTVSPost2010PropOp55
 70
     1
102
RTVSPost2010Prop56
140
1.0
102
RTVSPost2010PropOp56
 70
     1
102
RTVSPost2010Prop57
140
1.0
102
RTVSPost2010PropOp57
 70
     1
  0
XRECORD
  5
235
102
{ACAD_REACTORS
330
234
102
}
330
234
100
AcDbXrecord
280
     1
102
RTVSPost2010Prop28
280
     0
102
RTVSPost2010PropOp28
 70
     0
102
RTVSPost2010Prop29
280
     1
102
RTVSPost2010PropOp29
 70
     0
102
RTVSPost2010Prop30
280
     1
102
RTVSPost2010PropOp30
 70
     0
102
RTVSPost2010Prop31
280
     0
102
RTVSPost2010PropOp31
 70
     0
102
RTVSPost2010Prop32
280
     0
102
RTVSPost2010PropOp32
 70
     0
102
RTVSPost2010Prop33
280
     0
102
RTVSPost2010PropOp33
 70
     0
102
RTVSPost2010Prop34
280
     0
102
RTVSPost2010PropOp34
 70
     0
102
RTVSPost2010Prop35
280
     0
102
RTVSPost2010PropOp35
 70
     0
102
RTVSPost2010Prop36
280
     0
102
RTVSPost2010PropOp36
 70
     0
102
RTVSPost2010Prop37
 90
       50
102
RTVSPost2010PropOp37
 70
     0
102
RTVSPost2010Prop38
140
0.0
102
RTVSPost2010PropOp38
 70
     0
102
RTVSPost2010Prop39
140
1.0
102
RTVSPost2010PropOp39
 70
     0
102
RTVSPost2010Prop40
 90
        0
102
RTVSPost2010PropOp40
 70
     0
102
RTVSPost2010Prop41ColorIndex
 90
       18
102
RTVSPost2010Prop41ColorRGB
 90
        0
102
RTVSPost2010PropOp41
 70
     0
102
RTVSPost2010Prop42
 90
       50
102
RTVSPost2010PropOp42
 70
     0
102
RTVSPost2010Prop43
 90
        3
102
RTVSPost2010PropOp43
 70
     0
102
RTVSPost2010Prop44ColorIndex
 90
        5
102
RTVSPost2010Prop44ColorRGB
 90
      255
102
RTVSPost2010PropOp44
 70
     0
102
RTVSPost2010Prop45
280
     0
102
RTVSPost2010PropOp45
 70
     0
102
RTVSPost2010Prop46
 90
       50
102
RTVSPost2010PropOp46
 70
     0
102
RTVSPost2010Prop47
 90
       50
102
RTVSPost2010PropOp47
 70
     0
102
RTVSPost2010Prop48
 90
       50
102
RTVSPost2010PropOp48
 70
     0
102
RTVSPost2010Prop49
280
     0
102
RTVSPost2010PropOp49
 70
     0
102
RTVSPost2010Prop50
 90
       50
102
RTVSPost2010PropOp50
 70
     0
102
RTVSPost2010Prop51ColorIndex
 90
      256
102
RTVSPost2010Prop51ColorRGB
 90
-16777216
102
RTVSPost2010PropOp51
 70
     0
102
RTVSPost2010Prop52
140
1.0
102
RTVSPost2010PropOp52
 70
     0
102
RTVSPost2010Prop53
 90
        2
102
RTVSPost2010PropOp53
 70
     0
102
RTVSPost2010Prop54
  1
strokes_ogs.tif
102
RTVSPost2010PropOp54
 70
     0
102
RTVSPost2010Prop55
280
     0
102
RTVSPost2010PropOp55
 70
     0
102
RTVSPost2010Prop56
140
1.0
102
RTVSPost2010PropOp56
 70
     0
102
RTVSPost2010Prop57
140
1.0
102
RTVSPost2010PropOp57
 70
     0
  0
XRECORD
  5
223
102
{ACAD_REACTORS
330
222
102
}
330
222
100
AcDbXrecord
280
     1
102
RTVSPost2010Prop28
280
     0
102
RTVSPost2010PropOp28
 70
     1
102
RTVSPost2010Prop29
280
     1
102
RTVSPost2010PropOp29
 70
     1
102
RTVSPost2010Prop30
280
     1
102
RTVSPost2010PropOp30
 70
     1
102
RTVSPost2010Prop31
280
     0
102
RTVSPost2010PropOp31
 70
     1
102
RTVSPost2010Prop32
280
     0
102
RTVSPost2010PropOp32
 70
     1
102
RTVSPost2010Prop33
280
     0
102
RTVSPost2010PropOp33
 70
     1
102
RTVSPost2010Prop34
280
     0
102
RTVSPost2010PropOp34
 70
     1
102
RTVSPost2010Prop35
280
     0
102
RTVSPost2010PropOp35
 70
     1
102
RTVSPost2010Prop36
280
     0
102
RTVSPost2010PropOp36
 70
     1
102
RTVSPost2010Prop37
 90
       50
102
RTVSPost2010PropOp37
 70
     1
102
RTVSPost2010Prop38
140
0.0
102
RTVSPost2010PropOp38
 70
     1
102
RTVSPost2010Prop39
140
1.0
102
RTVSPost2010PropOp39
 70
     1
102
RTVSPost2010Prop40
 90
        0
102
RTVSPost2010PropOp40
 70
     1
102
RTVSPost2010Prop41ColorIndex
 90
       18
102
RTVSPost2010Prop41ColorRGB
 90
        0
102
RTVSPost2010PropOp41
 70
     1
102
RTVSPost2010Prop42
 90
       50
102
RTVSPost2010PropOp42
 70
     1
102
RTVSPost2010Prop43
 90
        3
102
RTVSPost2010PropOp43
 70
     1
102
RTVSPost2010Prop44ColorIndex
 90
        5
102
RTVSPost2010Prop44ColorRGB
 90
      255
102
RTVSPost2010PropOp44
 70
     1
102
RTVSPost2010Prop45
280
     0
102
RTVSPost2010PropOp45
 70
     1
102
RTVSPost2010Prop46
 90
       50
102
RTVSPost2010PropOp46
 70
     1
102
RTVSPost2010Prop47
 90
       50
102
RTVSPost2010PropOp47
 70
     1
102
RTVSPost2010Prop48
 90
       50
102
RTVSPost2010PropOp48
 70
     1
102
RTVSPost2010Prop49
280
     0
102
RTVSPost2010PropOp49
 70
     1
102
RTVSPost2010Prop50
 90
       50
102
RTVSPost2010PropOp50
 70
     1
102
RTVSPost2010Prop51ColorIndex
 90
      256
102
RTVSPost2010Prop51ColorRGB
 90
-16777216
102
RTVSPost2010PropOp51
 70
     0
102
RTVSPost2010Prop52
140
1.0
102
RTVSPost2010PropOp52
 70
     0
102
RTVSPost2010Prop53
 90
        2
102
RTVSPost2010PropOp53
 70
     1
102
RTVSPost2010Prop54
  1
strokes_ogs.tif
102
RTVSPost2010PropOp54
 70
     1
102
RTVSPost2010Prop55
280
     0
102
RTVSPost2010PropOp55
 70
     1
102
RTVSPost2010Prop56
140
1.0
102
RTVSPost2010PropOp56
 70
     1
102
RTVSPost2010Prop57
140
1.0
102
RTVSPost2010PropOp57
 70
     1
  0
XRECORD
  5
241
102
{ACAD_REACTORS
330
240
102
}
330
240
100
AcDbXrecord
280
     1
102
RTVSPost2010Prop28
280
     0
102
RTVSPost2010PropOp28
 70
     1
102
RTVSPost2010Prop29
280
     1
102
RTVSPost2010PropOp29
 70
     1
102
RTVSPost2010Prop30
280
     1
102
RTVSPost2010PropOp30
 70
     1
102
RTVSPost2010Prop31
280
     0
102
RTVSPost2010PropOp31
 70
     1
102
RTVSPost2010Prop32
280
     0
102
RTVSPost2010PropOp32
 70
     1
102
RTVSPost2010Prop33
280
     0
102
RTVSPost2010PropOp33
 70
     1
102
RTVSPost2010Prop34
280
     0
102
RTVSPost2010PropOp34
 70
     1
102
RTVSPost2010Prop35
280
     0
102
RTVSPost2010PropOp35
 70
     1
102
RTVSPost2010Prop36
280
     0
102
RTVSPost2010PropOp36
 70
     1
102
RTVSPost2010Prop37
 90
       50
102
RTVSPost2010PropOp37
 70
     1
102
RTVSPost2010Prop38
140
0.0
102
RTVSPost2010PropOp38
 70
     1
102
RTVSPost2010Prop39
140
1.0
102
RTVSPost2010PropOp39
 70
     1
102
RTVSPost2010Prop40
 90
        0
102
RTVSPost2010PropOp40
 70
     1
102
RTVSPost2010Prop41ColorIndex
 90
       18
102
RTVSPost2010Prop41ColorRGB
 90
        0
102
RTVSPost2010PropOp41
 70
     1
102
RTVSPost2010Prop42
 90
       50
102
RTVSPost2010PropOp42
 70
     1
102
RTVSPost2010Prop43
 90
        3
102
RTVSPost2010PropOp43
 70
     1
102
RTVSPost2010Prop44ColorIndex
 90
        5
102
RTVSPost2010Prop44ColorRGB
 90
      255
102
RTVSPost2010PropOp44
 70
     1
102
RTVSPost2010Prop45
280
     0
102
RTVSPost2010PropOp45
 70
     1
102
RTVSPost2010Prop46
 90
       50
102
RTVSPost2010PropOp46
 70
     1
102
RTVSPost2010Prop47
 90
       50
102
RTVSPost2010PropOp47
 70
     1
102
RTVSPost2010Prop48
 90
       50
102
RTVSPost2010PropOp48
 70
     1
102
RTVSPost2010Prop49
280
     0
102
RTVSPost2010PropOp49
 70
     1
102
RTVSPost2010Prop50
 90
       50
102
RTVSPost2010PropOp50
 70
     1
102
RTVSPost2010Prop51ColorIndex
 90
      256
102
RTVSPost2010Prop51ColorRGB
 90
-16777216
102
RTVSPost2010PropOp51
 70
     0
102
RTVSPost2010Prop52
140
1.0
102
RTVSPost2010PropOp52
 70
     0
102
RTVSPost2010Prop53
 90
        2
102
RTVSPost2010PropOp53
 70
     1
102
RTVSPost2010Prop54
  1
strokes_ogs.tif
102
RTVSPost2010PropOp54
 70
     1
102
RTVSPost2010Prop55
280
     0
102
RTVSPost2010PropOp55
 70
     1
102
RTVSPost2010Prop56
140
1.0
102
RTVSPost2010PropOp56
 70
     1
102
RTVSPost2010Prop57
140
1.0
102
RTVSPost2010PropOp57
 70
     1
  0
XRECORD
  5
23F
102
{ACAD_REACTORS
330
23E
102
}
330
23E
100
AcDbXrecord
280
     1
102
RTVSPost2010Prop28
280
     0
102
RTVSPost2010PropOp28
 70
     1
102
RTVSPost2010Prop29
280
     1
102
RTVSPost2010PropOp29
 70
     1
102
RTVSPost2010Prop30
280
     1
102
RTVSPost2010PropOp30
 70
     1
102
RTVSPost2010Prop31
280
     0
102
RTVSPost2010PropOp31
 70
     1
102
RTVSPost2010Prop32
280
     0
102
RTVSPost2010PropOp32
 70
     1
102
RTVSPost2010Prop33
280
     0
102
RTVSPost2010PropOp33
 70
     1
102
RTVSPost2010Prop34
280
     0
102
RTVSPost2010PropOp34
 70
     1
102
RTVSPost2010Prop35
280
     0
102
RTVSPost2010PropOp35
 70
     1
102
RTVSPost2010Prop36
280
     0
102
RTVSPost2010PropOp36
 70
     1
102
RTVSPost2010Prop37
 90
       50
102
RTVSPost2010PropOp37
 70
     1
102
RTVSPost2010Prop38
140
0.0
102
RTVSPost2010PropOp38
 70
     1
102
RTVSPost2010Prop39
140
1.0
102
RTVSPost2010PropOp39
 70
     1
102
RTVSPost2010Prop40
 90
        0
102
RTVSPost2010PropOp40
 70
     1
102
RTVSPost2010Prop41ColorIndex
 90
       18
102
RTVSPost2010Prop41ColorRGB
 90
        0
102
RTVSPost2010PropOp41
 70
     1
102
RTVSPost2010Prop42
 90
       50
102
RTVSPost2010PropOp42
 70
     1
102
RTVSPost2010Prop43
 90
        3
102
RTVSPost2010PropOp43
 70
     1
102
RTVSPost2010Prop44ColorIndex
 90
        5
102
RTVSPost2010Prop44ColorRGB
 90
      255
102
RTVSPost2010PropOp44
 70
     1
102
RTVSPost2010Prop45
280
     0
102
RTVSPost2010PropOp45
 70
     1
102
RTVSPost2010Prop46
 90
       50
102
RTVSPost2010PropOp46
 70
     1
102
RTVSPost2010Prop47
 90
       50
102
RTVSPost2010PropOp47
 70
     1
102
RTVSPost2010Prop48
 90
       50
102
RTVSPost2010PropOp48
 70
     1
102
RTVSPost2010Prop49
280
     0
102
RTVSPost2010PropOp49
 70
     1
102
RTVSPost2010Prop50
 90
       50
102
RTVSPost2010PropOp50
 70
     1
102
RTVSPost2010Prop51ColorIndex
 90
      256
102
RTVSPost2010Prop51ColorRGB
 90
-16777216
102
RTVSPost2010PropOp51
 70
     0
102
RTVSPost2010Prop52
140
1.0
102
RTVSPost2010PropOp52
 70
     0
102
RTVSPost2010Prop53
 90
        2
102
RTVSPost2010PropOp53
 70
     1
102
RTVSPost2010Prop54
  1
strokes_ogs.tif
102
RTVSPost2010PropOp54
 70
     1
102
RTVSPost2010Prop55
280
     0
102
RTVSPost2010PropOp55
 70
     1
102
RTVSPost2010Prop56
140
1.0
102
RTVSPost2010PropOp56
 70
     1
102
RTVSPost2010Prop57
140
1.0
102
RTVSPost2010PropOp57
 70
     1
  0
XRECORD
  5
239
102
{ACAD_REACTORS
330
238
102
}
330
238
100
AcDbXrecord
280
     1
102
RTVSPost2010Prop28
280
     0
102
RTVSPost2010PropOp28
 70
     1
102
RTVSPost2010Prop29
280
     1
102
RTVSPost2010PropOp29
 70
     1
102
RTVSPost2010Prop30
280
     1
102
RTVSPost2010PropOp30
 70
     1
102
RTVSPost2010Prop31
280
     0
102
RTVSPost2010PropOp31
 70
     1
102
RTVSPost2010Prop32
280
     0
102
RTVSPost2010PropOp32
 70
     1
102
RTVSPost2010Prop33
280
     0
102
RTVSPost2010PropOp33
 70
     1
102
RTVSPost2010Prop34
280
     0
102
RTVSPost2010PropOp34
 70
     1
102
RTVSPost2010Prop35
280
     0
102
RTVSPost2010PropOp35
 70
     1
102
RTVSPost2010Prop36
280
     0
102
RTVSPost2010PropOp36
 70
     1
102
RTVSPost2010Prop37
 90
       50
102
RTVSPost2010PropOp37
 70
     1
102
RTVSPost2010Prop38
140
0.0
102
RTVSPost2010PropOp38
 70
     1
102
RTVSPost2010Prop39
140
1.0
102
RTVSPost2010PropOp39
 70
     1
102
RTVSPost2010Prop40
 90
        0
102
RTVSPost2010PropOp40
 70
     1
102
RTVSPost2010Prop41ColorIndex
 90
       18
102
RTVSPost2010Prop41ColorRGB
 90
        0
102
RTVSPost2010PropOp41
 70
     1
102
RTVSPost2010Prop42
 90
       50
102
RTVSPost2010PropOp42
 70
     1
102
RTVSPost2010Prop43
 90
        3
102
RTVSPost2010PropOp43
 70
     1
102
RTVSPost2010Prop44ColorIndex
 90
        5
102
RTVSPost2010Prop44ColorRGB
 90
      255
102
RTVSPost2010PropOp44
 70
     1
102
RTVSPost2010Prop45
280
     0
102
RTVSPost2010PropOp45
 70
     1
102
RTVSPost2010Prop46
 90
       50
102
RTVSPost2010PropOp46
 70
     1
102
RTVSPost2010Prop47
 90
       50
102
RTVSPost2010PropOp47
 70
     1
102
RTVSPost2010Prop48
 90
       50
102
RTVSPost2010PropOp48
 70
     1
102
RTVSPost2010Prop49
280
     0
102
RTVSPost2010PropOp49
 70
     1
102
RTVSPost2010Prop50
 90
       50
102
RTVSPost2010PropOp50
 70
     1
102
RTVSPost2010Prop51ColorIndex
 90
      256
102
RTVSPost2010Prop51ColorRGB
 90
-16777216
102
RTVSPost2010PropOp51
 70
     0
102
RTVSPost2010Prop52
140
1.0
102
RTVSPost2010PropOp52
 70
     0
102
RTVSPost2010Prop53
 90
        2
102
RTVSPost2010PropOp53
 70
     1
102
RTVSPost2010Prop54
  1
strokes_ogs.tif
102
RTVSPost2010PropOp54
 70
     1
102
RTVSPost2010Prop55
280
     0
102
RTVSPost2010PropOp55
 70
     1
102
RTVSPost2010Prop56
140
1.0
102
RTVSPost2010PropOp56
 70
     1
102
RTVSPost2010Prop57
140
1.0
102
RTVSPost2010PropOp57
 70
     1
  0
XRECORD
  5
23B
102
{ACAD_REACTORS
330
23A
102
}
330
23A
100
AcDbXrecord
280
     1
102
RTVSPost2010Prop28
280
     0
102
RTVSPost2010PropOp28
 70
     1
102
RTVSPost2010Prop29
280
     1
102
RTVSPost2010PropOp29
 70
     1
102
RTVSPost2010Prop30
280
     1
102
RTVSPost2010PropOp30
 70
     1
102
RTVSPost2010Prop31
280
     0
102
RTVSPost2010PropOp31
 70
     1
102
RTVSPost2010Prop32
280
     0
102
RTVSPost2010PropOp32
 70
     1
102
RTVSPost2010Prop33
280
     0
102
RTVSPost2010PropOp33
 70
     1
102
RTVSPost2010Prop34
280
     0
102
RTVSPost2010PropOp34
 70
     1
102
RTVSPost2010Prop35
280
     0
102
RTVSPost2010PropOp35
 70
     1
102
RTVSPost2010Prop36
280
     0
102
RTVSPost2010PropOp36
 70
     1
102
RTVSPost2010Prop37
 90
       50
102
RTVSPost2010PropOp37
 70
     1
102
RTVSPost2010Prop38
140
0.0
102
RTVSPost2010PropOp38
 70
     1
102
RTVSPost2010Prop39
140
1.0
102
RTVSPost2010PropOp39
 70
     1
102
RTVSPost2010Prop40
 90
        0
102
RTVSPost2010PropOp40
 70
     1
102
RTVSPost2010Prop41ColorIndex
 90
       18
102
RTVSPost2010Prop41ColorRGB
 90
        0
102
RTVSPost2010PropOp41
 70
     1
102
RTVSPost2010Prop42
 90
       50
102
RTVSPost2010PropOp42
 70
     1
102
RTVSPost2010Prop43
 90
        3
102
RTVSPost2010PropOp43
 70
     1
102
RTVSPost2010Prop44ColorIndex
 90
        5
102
RTVSPost2010Prop44ColorRGB
 90
      255
102
RTVSPost2010PropOp44
 70
     1
102
RTVSPost2010Prop45
280
     0
102
RTVSPost2010PropOp45
 70
     1
102
RTVSPost2010Prop46
 90
       50
102
RTVSPost2010PropOp46
 70
     1
102
RTVSPost2010Prop47
 90
       50
102
RTVSPost2010PropOp47
 70
     1
102
RTVSPost2010Prop48
 90
       50
102
RTVSPost2010PropOp48
 70
     1
102
RTVSPost2010Prop49
280
     0
102
RTVSPost2010PropOp49
 70
     1
102
RTVSPost2010Prop50
 90
       50
102
RTVSPost2010PropOp50
 70
     1
102
RTVSPost2010Prop51ColorIndex
 90
      256
102
RTVSPost2010Prop51ColorRGB
 90
-16777216
102
RTVSPost2010PropOp51
 70
     0
102
RTVSPost2010Prop52
140
1.0
102
RTVSPost2010PropOp52
 70
     0
102
RTVSPost2010Prop53
 90
        2
102
RTVSPost2010PropOp53
 70
     1
102
RTVSPost2010Prop54
  1
strokes_ogs.tif
102
RTVSPost2010PropOp54
 70
     1
102
RTVSPost2010Prop55
280
     0
102
RTVSPost2010PropOp55
 70
     1
102
RTVSPost2010Prop56
140
1.0
102
RTVSPost2010PropOp56
 70
     1
102
RTVSPost2010Prop57
140
1.0
102
RTVSPost2010PropOp57
 70
     1
  0
XRECORD
  5
22B
102
{ACAD_REACTORS
330
22A
102
}
330
22A
100
AcDbXrecord
280
     1
102
RTVSPost2010Prop28
280
     0
102
RTVSPost2010PropOp28
 70
     1
102
RTVSPost2010Prop29
280
     1
102
RTVSPost2010PropOp29
 70
     1
102
RTVSPost2010Prop30
280
     1
102
RTVSPost2010PropOp30
 70
     1
102
RTVSPost2010Prop31
280
     0
102
RTVSPost2010PropOp31
 70
     1
102
RTVSPost2010Prop32
280
     0
102
RTVSPost2010PropOp32
 70
     1
102
RTVSPost2010Prop33
280
     0
102
RTVSPost2010PropOp33
 70
     1
102
RTVSPost2010Prop34
280
     0
102
RTVSPost2010PropOp34
 70
     1
102
RTVSPost2010Prop35
280
     0
102
RTVSPost2010PropOp35
 70
     1
102
RTVSPost2010Prop36
280
     0
102
RTVSPost2010PropOp36
 70
     1
102
RTVSPost2010Prop37
 90
       50
102
RTVSPost2010PropOp37
 70
     1
102
RTVSPost2010Prop38
140
0.0
102
RTVSPost2010PropOp38
 70
     1
102
RTVSPost2010Prop39
140
1.0
102
RTVSPost2010PropOp39
 70
     1
102
RTVSPost2010Prop40
 90
        0
102
RTVSPost2010PropOp40
 70
     1
102
RTVSPost2010Prop41ColorIndex
 90
       18
102
RTVSPost2010Prop41ColorRGB
 90
        0
102
RTVSPost2010PropOp41
 70
     1
102
RTVSPost2010Prop42
 90
       50
102
RTVSPost2010PropOp42
 70
     1
102
RTVSPost2010Prop43
 90
        3
102
RTVSPost2010PropOp43
 70
     1
102
RTVSPost2010Prop44ColorIndex
 90
        5
102
RTVSPost2010Prop44ColorRGB
 90
      255
102
RTVSPost2010PropOp44
 70
     1
102
RTVSPost2010Prop45
280
     0
102
RTVSPost2010PropOp45
 70
     1
102
RTVSPost2010Prop46
 90
       50
102
RTVSPost2010PropOp46
 70
     1
102
RTVSPost2010Prop47
 90
       50
102
RTVSPost2010PropOp47
 70
     1
102
RTVSPost2010Prop48
 90
       50
102
RTVSPost2010PropOp48
 70
     1
102
RTVSPost2010Prop49
280
     0
102
RTVSPost2010PropOp49
 70
     1
102
RTVSPost2010Prop50
 90
       50
102
RTVSPost2010PropOp50
 70
     1
102
RTVSPost2010Prop51ColorIndex
 90
      256
102
RTVSPost2010Prop51ColorRGB
 90
-16777216
102
RTVSPost2010PropOp51
 70
     0
102
RTVSPost2010Prop52
140
1.0
102
RTVSPost2010PropOp52
 70
     0
102
RTVSPost2010Prop53
 90
        2
102
RTVSPost2010PropOp53
 70
     1
102
RTVSPost2010Prop54
  1
strokes_ogs.tif
102
RTVSPost2010PropOp54
 70
     1
102
RTVSPost2010Prop55
280
     0
102
RTVSPost2010PropOp55
 70
     1
102
RTVSPost2010Prop56
140
1.0
102
RTVSPost2010PropOp56
 70
     1
102
RTVSPost2010Prop57
140
1.0
102
RTVSPost2010PropOp57
 70
     1
  0
XRECORD
  5
21D
102
{ACAD_REACTORS
330
21C
102
}
330
21C
100
AcDbXrecord
280
     1
102
RTVSPost2010Prop28
280
     0
102
RTVSPost2010PropOp28
 70
     1
102
RTVSPost2010Prop29
280
     1
102
RTVSPost2010PropOp29
 70
     1
102
RTVSPost2010Prop30
280
     1
102
RTVSPost2010PropOp30
 70
     1
102
RTVSPost2010Prop31
280
     0
102
RTVSPost2010PropOp31
 70
     1
102
RTVSPost2010Prop32
280
     0
102
RTVSPost2010PropOp32
 70
     1
102
RTVSPost2010Prop33
280
     0
102
RTVSPost2010PropOp33
 70
     1
102
RTVSPost2010Prop34
280
     0
102
RTVSPost2010PropOp34
 70
     1
102
RTVSPost2010Prop35
280
     0
102
RTVSPost2010PropOp35
 70
     1
102
RTVSPost2010Prop36
280
     0
102
RTVSPost2010PropOp36
 70
     1
102
RTVSPost2010Prop37
 90
       50
102
RTVSPost2010PropOp37
 70
     1
102
RTVSPost2010Prop38
140
0.0
102
RTVSPost2010PropOp38
 70
     1
102
RTVSPost2010Prop39
140
1.0
102
RTVSPost2010PropOp39
 70
     1
102
RTVSPost2010Prop40
 90
        0
102
RTVSPost2010PropOp40
 70
     1
102
RTVSPost2010Prop41ColorIndex
 90
       18
102
RTVSPost2010Prop41ColorRGB
 90
        0
102
RTVSPost2010PropOp41
 70
     1
102
RTVSPost2010Prop42
 90
       50
102
RTVSPost2010PropOp42
 70
     1
102
RTVSPost2010Prop43
 90
        3
102
RTVSPost2010PropOp43
 70
     1
102
RTVSPost2010Prop44ColorIndex
 90
        5
102
RTVSPost2010Prop44ColorRGB
 90
      255
102
RTVSPost2010PropOp44
 70
     1
102
RTVSPost2010Prop45
280
     0
102
RTVSPost2010PropOp45
 70
     1
102
RTVSPost2010Prop46
 90
       50
102
RTVSPost2010PropOp46
 70
     1
102
RTVSPost2010Prop47
 90
       50
102
RTVSPost2010PropOp47
 70
     1
102
RTVSPost2010Prop48
 90
       50
102
RTVSPost2010PropOp48
 70
     1
102
RTVSPost2010Prop49
280
     0
102
RTVSPost2010PropOp49
 70
     1
102
RTVSPost2010Prop50
 90
       50
102
RTVSPost2010PropOp50
 70
     1
102
RTVSPost2010Prop51ColorIndex
 90
      256
102
RTVSPost2010Prop51ColorRGB
 90
-16777216
102
RTVSPost2010PropOp51
 70
     0
102
RTVSPost2010Prop52
140
1.0
102
RTVSPost2010PropOp52
 70
     0
102
RTVSPost2010Prop53
 90
        2
102
RTVSPost2010PropOp53
 70
     1
102
RTVSPost2010Prop54
  1
strokes_ogs.tif
102
RTVSPost2010PropOp54
 70
     1
102
RTVSPost2010Prop55
280
     0
102
RTVSPost2010PropOp55
 70
     1
102
RTVSPost2010Prop56
140
1.0
102
RTVSPost2010PropOp56
 70
     1
102
RTVSPost2010Prop57
140
1.0
102
RTVSPost2010PropOp57
 70
     1
  0
XRECORD
  5
23D
102
{ACAD_REACTORS
330
23C
102
}
330
23C
100
AcDbXrecord
280
     1
102
RTVSPost2010Prop28
280
     0
102
RTVSPost2010PropOp28
 70
     1
102
RTVSPost2010Prop29
280
     1
102
RTVSPost2010PropOp29
 70
     1
102
RTVSPost2010Prop30
280
     1
102
RTVSPost2010PropOp30
 70
     1
102
RTVSPost2010Prop31
280
     0
102
RTVSPost2010PropOp31
 70
     1
102
RTVSPost2010Prop32
280
     0
102
RTVSPost2010PropOp32
 70
     1
102
RTVSPost2010Prop33
280
     0
102
RTVSPost2010PropOp33
 70
     1
102
RTVSPost2010Prop34
280
     0
102
RTVSPost2010PropOp34
 70
     1
102
RTVSPost2010Prop35
280
     0
102
RTVSPost2010PropOp35
 70
     1
102
RTVSPost2010Prop36
280
     0
102
RTVSPost2010PropOp36
 70
     1
102
RTVSPost2010Prop37
 90
       50
102
RTVSPost2010PropOp37
 70
     1
102
RTVSPost2010Prop38
140
0.0
102
RTVSPost2010PropOp38
 70
     1
102
RTVSPost2010Prop39
140
1.0
102
RTVSPost2010PropOp39
 70
     1
102
RTVSPost2010Prop40
 90
        0
102
RTVSPost2010PropOp40
 70
     1
102
RTVSPost2010Prop41ColorIndex
 90
       18
102
RTVSPost2010Prop41ColorRGB
 90
        0
102
RTVSPost2010PropOp41
 70
     1
102
RTVSPost2010Prop42
 90
       50
102
RTVSPost2010PropOp42
 70
     1
102
RTVSPost2010Prop43
 90
        3
102
RTVSPost2010PropOp43
 70
     1
102
RTVSPost2010Prop44ColorIndex
 90
        5
102
RTVSPost2010Prop44ColorRGB
 90
      255
102
RTVSPost2010PropOp44
 70
     1
102
RTVSPost2010Prop45
280
     0
102
RTVSPost2010PropOp45
 70
     1
102
RTVSPost2010Prop46
 90
       50
102
RTVSPost2010PropOp46
 70
     1
102
RTVSPost2010Prop47
 90
       50
102
RTVSPost2010PropOp47
 70
     1
102
RTVSPost2010Prop48
 90
       50
102
RTVSPost2010PropOp48
 70
     1
102
RTVSPost2010Prop49
280
     0
102
RTVSPost2010PropOp49
 70
     1
102
RTVSPost2010Prop50
 90
       50
102
RTVSPost2010PropOp50
 70
     1
102
RTVSPost2010Prop51ColorIndex
 90
      256
102
RTVSPost2010Prop51ColorRGB
 90
-16777216
102
RTVSPost2010PropOp51
 70
     0
102
RTVSPost2010Prop52
140
1.0
102
RTVSPost2010PropOp52
 70
     0
102
RTVSPost2010Prop53
 90
        2
102
RTVSPost2010PropOp53
 70
     1
102
RTVSPost2010Prop54
  1
strokes_ogs.tif
102
RTVSPost2010PropOp54
 70
     1
102
RTVSPost2010Prop55
280
     0
102
RTVSPost2010PropOp55
 70
     1
102
RTVSPost2010Prop56
140
1.0
102
RTVSPost2010PropOp56
 70
     1
102
RTVSPost2010Prop57
140
1.0
102
RTVSPost2010PropOp57
 70
     1
  0
ENDSEC
  0
EOF
